Maceo and The Macks – Cross The Tracks: аккорды для гитары

Текст песни "Maceo and The Macks – Cross The Tracks" с аккордами для гитары

G|-----------------8--------13------------------------|
D|-----------8----------------------------------------|
A|-----8----------------------------------------------|
E|--8-------------------------------------------------|


G|----------------------------------------------------|
D|-----------3.-------6.----------8-------------------|
A|----------------------------------------------------|
E|--6.------------------------------------------------|


G|----------------------------------------------------|
D|-----------3.-------6.----------8-------------------|
A|----------------------------------------------------|
E|--6.----------------------------------6-------------|


G|----------------------------------------------------|
D|-----------3.-------6.----------8-------------------|
A|----------------------------------------------------|
E|--6.------------------------------------------------|


G|----------------------------------------------------|
D|-----------3.-------6.----------8-------------------|
A|----------------------------------------------------|
E|--6.----------------------------------6-------------|


G|----------------------------------------------------|
D|-----------3.-------6.----------8-------------------|
A|----------------------------------------------------|
E|--6.------------------------------------------------|


G|----------------------------------------------------|
D|-----------3.-------6.----------8-------------------|
A|----------------------------------------------------|
E|--6.----------------------------------6-------------|


G|----------------------------------------------------|
D|-----------3.-------6.----------8-------------------|
A|----------------------------------------------------|
E|--6.------------------------------------------------|


G|----------------------------------------------------|
D|-----------3.-------6.----------8-------------------|
A|----------------------------------------------------|
E|--6.----------------------------------6-------------|


G|----------------------------------------------------|
D|-----------3.-------6.----------8-------------------|
A|----------------------------------------------------|
E|--6.------------------------------------------------|


G|----------------------------------------------------|
D|-----------3.-------6.----------8-------------------|
A|----------------------------------------------------|
E|--6.----------------------------------6-------------|


G|----------------------------------------------------|
D|-----------3.-------6.----------8-------------------|
A|----------------------------------------------------|
E|--6.------------------------------------------------|


G|----------------------------------------------------|
D|-----------3.-------6.----------8-------------------|
A|----------------------------------------------------|
E|--6.----------------------------------6-------------|


G|----------------------------------------------------|
D|-----------3.-------6.----------8-------------------|
A|----------------------------------------------------|
E|--6.------------------------------------------------|


G|----------------------------------------------------|
D|-----------3.-------6.----------8-------------------|
A|----------------------------------------------------|
E|--6.----------------------------------6-------------|


G|----------------------------------------------------|
D|-----------3.-------6.----------8-------------------|
A|----------------------------------------------------|
E|--6.------------------------------------------------|


G|----------------------------------------------------|
D|-----------3.-------6.----------8-------------------|
A|----------------------------------------------------|
E|--6.----------------------------------6-------------|


G|----------------------------------------------------|
D|-----------3.-------6.----------8-------------------|
A|----------------------------------------------------|
E|--6.------------------------------------------------|


G|----------------------------------------------------|
D|-----------3.-------6.----------8-------------------|
A|----------------------------------------------------|
E|--6.----------------------------------6-------------|


G|----------------------------------------------------|
D|-----------6----------------------------------------|
A|-----5----------------------------------------------|
E|--4-------------------------------------------------|


G|----------------------------------------------------|
D|-----------8----------------------------------------|
A|-----8----------------------------------------------|
E|--6-------------------------------------------------|


G|----------------------------------------------------|
D|-----------6----------------------------------------|
A|-----5----------------------------------------------|
E|--4-------------------------------------------------|


G|----------------------------------------------------|
D|-----------8----------------------------------------|
A|-----8----------------------------------------------|
E|--6-------------------------------------------------|


G|----------------------------------------------------|
D|-----------3.-------6.----------8-------------------|
A|----------------------------------------------------|
E|--6.------------------------------------------------|


G|----------------------------------------------------|
D|-----------3.-------6.----------8-------------------|
A|----------------------------------------------------|
E|--6.----------------------------------6-------------|


G|----------------------------------------------------|
D|-----------3.-------6.----------8-------------------|
A|----------------------------------------------------|
E|--6.------------------------------------------------|


G|----------------------------------------------------|
D|-----------3.-------6.----------8-------------------|
A|----------------------------------------------------|
E|--6.----------------------------------6-------------|


G|----------------------------------------------------|
D|-----------3.-------6.----------8-------------------|
A|----------------------------------------------------|
E|--6.------------------------------------------------|


G|----------------------------------------------------|
D|-----------3.-------6.----------8-------------------|
A|----------------------------------------------------|
E|--6.----------------------------------6-------------|


G|----------------------------------------------------|
D|-----------3.-------6.----------8-------------------|
A|----------------------------------------------------|
E|--6.------------------------------------------------|


G|----------------------------------------------------|
D|-----------3.-------6.----------8-------------------|
A|----------------------------------------------------|
E|--6.----------------------------------6-------------|


G|----------------------------------------------------|
D|-----------3.-------6.----------8-------------------|
A|----------------------------------------------------|
E|--6.------------------------------------------------|


G|----------------------------------------------------|
D|-----------3.-------6.----------8-------------------|
A|----------------------------------------------------|
E|--6.----------------------------------6-------------|


G|----------------------------------------------------|
D|-----------3.-------6.----------8-------------------|
A|----------------------------------------------------|
E|--6.------------------------------------------------|


G|----------------------------------------------------|
D|-----------3.-------6.----------8-------------------|
A|----------------------------------------------------|
E|--6.----------------------------------6-------------|


G|----------------------------------------------------|
D|-----------3.-------6.----------8-------------------|
A|----------------------------------------------------|
E|--6.------------------------------------------------|


G|----------------------------------------------------|
D|-----------3.-------6.----------8-------------------|
A|----------------------------------------------------|
E|--6.----------------------------------6-------------|


G|----------------------------------------------------|
D|-----------6----------------------------------------|
A|-----5----------------------------------------------|
E|--4-------------------------------------------------|


G|----------------------------------------------------|
D|-----------8----------------------------------------|
A|-----8----------------------------------------------|
E|--6-------------------------------------------------|


G|----------------------------------------------------|
D|-----------6----------------------------------------|
A|-----5----------------------------------------------|
E|--4-------------------------------------------------|


G|----------------------------------------------------|
D|-----------8----------------------------------------|
A|-----8----------------------------------------------|
E|--6-------------------------------------------------|


G|----------------------------------------------------|
D|-----------3.-------6.----------8-------------------|
A|----------------------------------------------------|
E|--6.------------------------------------------------|


G|----------------------------------------------------|
D|-----------3.-------6.----------8-------------------|
A|----------------------------------------------------|
E|--6.----------------------------------6-------------|


G|----------------------------------------------------|
D|-----------3.-------6.----------8-------------------|
A|----------------------------------------------------|
E|--6.------------------------------------------------|


G|----------------------------------------------------|
D|-----------3.-------6.----------8-------------------|
A|----------------------------------------------------|
E|--6.----------------------------------6-------------|


G|----------------------------------------------------|
D|-----------3.-------6.----------8-------------------|
A|----------------------------------------------------|
E|--6.------------------------------------------------|


G|----------------------------------------------------|
D|-----------3.-------6.----------8-------------------|
A|----------------------------------------------------|
E|--6.----------------------------------6-------------|


G|----------------------------------------------------|
D|-----------3.-------6.----------8-------------------|
A|----------------------------------------------------|
E|--6.------------------------------------------------|


G|----------------------------------------------------|
D|-----------3.-------6.----------8-------------------|
A|----------------------------------------------------|
E|--6.----------------------------------6-------------|


G|----------------------------------------------------|
D|-----------3.-------6.----------8-------------------|
A|----------------------------------------------------|
E|--6.------------------------------------------------|


G|----------------------------------------------------|
D|-----------3.-------6.----------8-------------------|
A|----------------------------------------------------|
E|--6.----------------------------------6-------------|


G|----------------------------------------------------|
D|-----------3.-------6.----------8-------------------|
A|----------------------------------------------------|
E|--6.------------------------------------------------|


G|----------------------------------------------------|
D|-----------3.-------6.----------8-------------------|
A|----------------------------------------------------|
E|--6.----------------------------------6-------------|


G|----------------------------------------------------|
D|-----------3.-------6.----------8-------------------|
A|----------------------------------------------------|
E|--6.------------------------------------------------|


G|----------------------------------------------------|
D|-----------3.-------6.----------8-------------------|
A|----------------------------------------------------|
E|--6.----------------------------------6-------------|


G|----------------------------------------------------|
D|-----------3.-------6.----------8-------------------|
A|----------------------------------------------------|
E|--6.------------------------------------------------|


G|----------------------------------------------------|
D|-----------3.-------6.----------8-------------------|
A|----------------------------------------------------|
E|--6.----------------------------------6-------------|


G|-----------------8--------13------------------------|
D|-----------8----------------------------------------|
A|-----8----------------------------------------------|
E|--8-------------------------------------------------|


G|----------------------------------------------------|
D|-----------3.-------6.----------8-------------------|
A|----------------------------------------------------|
E|--6.------------------------------------------------|


G|----------------------------------------------------|
D|-----------3.-------6.----------8-------------------|
A|----------------------------------------------------|
E|--6.----------------------------------6-------------|


G|----------------------------------------------------|
D|-----------3.-------6.----------8-------------------|
A|----------------------------------------------------|
E|--6.------------------------------------------------|


G|----------------------------------------------------|
D|-----------3.-------6.----------8-------------------|
A|----------------------------------------------------|
E|--6.----------------------------------6-------------|


G|----------------------------------------------------|
D|-----------3.-------6.----------8-------------------|
A|----------------------------------------------------|
E|--6.------------------------------------------------|


G|----------------------------------------------------|
D|-----------3.-------6.----------8-------------------|
A|----------------------------------------------------|
E|--6.----------------------------------6-------------|


G|----------------------------------------------------|
D|-----------3.-------6.----------8-------------------|
A|----------------------------------------------------|
E|--6.------------------------------------------------|


G|----------------------------------------------------|
D|-----------3.-------6.----------8-------------------|
A|----------------------------------------------------|
E|--6.----------------------------------6-------------|


G|----------------------------------------------------|
D|-----------3.-------6.----------8-------------------|
A|----------------------------------------------------|
E|--6.------------------------------------------------|


G|----------------------------------------------------|
D|-----------3.-------6.----------8-------------------|
A|----------------------------------------------------|
E|--6.----------------------------------6-------------|


G|----------------------------------------------------|
D|-----------3.-------6.----------8-------------------|
A|----------------------------------------------------|
E|--6.------------------------------------------------|


G|----------------------------------------------------|
D|-----------3.-------6.----------8-------------------|
A|----------------------------------------------------|
E|--6.----------------------------------6-------------|


G|----------------------------------------------------|
D|-----------3.-------6.----------8-------------------|
A|----------------------------------------------------|
E|--6.------------------------------------------------|


G|----------------------------------------------------|
D|-----------3.-------6.----------8-------------------|
A|----------------------------------------------------|
E|--6.----------------------------------6-------------|


G|----------------------------------------------------|
D|-----------3.-------6.----------8-------------------|
A|----------------------------------------------------|
E|--6.------------------------------------------------|


G|----------------------------------------------------|
D|-----------3.-------6.----------8-------------------|
A|----------------------------------------------------|
E|--6.----------------------------------6-------------|


G|----------------------------------------------------|
D|-----------3.-------6.----------8-------------------|
A|----------------------------------------------------|
E|--6.------------------------------------------------|


G|----------------------------------------------------|
D|-----------3.-------6.----------8-------------------|
A|----------------------------------------------------|
E|--6.----------------------------------6-------------|


G|----------------------------------------------------|
D|-----------3.-------6.----------8-------------------|
A|----------------------------------------------------|
E|--6.------------------------------------------------|


G|----------------------------------------------------|
D|-----------3.-------6.----------8-------------------|
A|----------------------------------------------------|
E|--6.----------------------------------6-------------|


G|----------------------------------------------------|
D|-----------3.-------6.----------8-------------------|
A|----------------------------------------------------|
E|--6.------------------------------------------------|


G|----------------------------------------------------|
D|-----------3.-------6.----------8-------------------|
A|----------------------------------------------------|
E|--6.----------------------------------6-------------|


G|----------------------------------------------------|
D|-----------3.-------6.----------8-------------------|
A|----------------------------------------------------|
E|--6.------------------------------------------------|


G|----------------------------------------------------||
D|-----------3.-------6.----------8-------------------||
A|----------------------------------------------------||
E|--6.----------------------------------6-------------||


********************************************

|. - staccato

********************************************
Важно! Чтобы посмотреть аппликатуру нужного аккорда к песне “Maceo and The Macks – Cross The Tracks“, просто наведите мышку/кликните на сам аккорд.

Видео/Клип на песню “Maceo and The Macks – Cross The Tracks”:

Нажмите на звезду, чтобы оценить!

Средняя оценка 0 / 5. Количество оценок: 0

Оценок пока нет. Поставьте оценку первым.

Подписаться
Уведомление о
guest
0 Комментарий
inline-комментарии
Посмотреть все комментарии
ПОПУЛЯРНЫЕ АККОРДЫ:
Adblock
detector