Amy Winehouse – Stronger Than Me: аккорды для гитары

Текст песни "Amy Winehouse – Stronger Than Me" с аккордами для гитары

I play completelty different chords to the others that I've seen here but I think it sounds really good when
its done right. The Dsus4/A sounds off at first but it resolves nicely dw 🙂

Sorry I dont have the intro 

( = light percussive smack, / = slide

(percussion is optional, as is the slide on the bass note, which isn't in the original)

Verse
   Gm7      Dsus4/A  Dm7
e|-----------------|-----|-----|--------|
B|-------3------6--|--6--|--6--|-----6--|
G|------3-------6--|--5--|--5--|-----5--|
D|-----3--------5--|--7--|--7--|-----7--|
A|-----------------|--5--|--5--|--5-----|
E|--3------4/-5----|-----|-----|--------|




Chorus
   Fmaj7                    G9maj7 (i think)
e|------|-------|---------------|------|---------|
B|--10--|---10--|-----10----10--|--10--|-----10--|
G|--9---|---9---|-----9-----10--|--10--|-----10--|
D|--10--|---10--|-----10----9---|--9---|-----9---|
A|--8---|-------|--8--------10--|------|--10-----|
E|------|-------|---------------|------|---------|GBFA
Важно! Чтобы посмотреть аппликатуру нужного аккорда к песне “Amy Winehouse – Stronger Than Me“, просто наведите мышку/кликните на сам аккорд.

Видео/Клип на песню “Amy Winehouse – Stronger Than Me”:

Нажмите на звезду, чтобы оценить!

Средняя оценка 0 / 5. Количество оценок: 0

Оценок пока нет. Поставьте оценку первым.

Подписаться
Уведомление о
guest
0 Комментарий
inline-комментарии
Посмотреть все комментарии
ПОПУЛЯРНЫЕ АККОРДЫ: