Король и Шут – Танец злобного гения: аккорды песни

47

Вступление:
2 раза:          

e|-------7-|-------7-|-------7-|-------9-|
B|----9----|---------|---------|---------|
G|---------|----7----|----7----|----9----|
D|-9-------|-9-------|---------|-7-------|
A|-7-------|---------|-10------|---------|
E|---------|-7-------|---------|---------|

2 раза:          

e|--12--|---------------------|-12---14-12----------|-12---14-12---|
B|--12--|-15-14---12---12-15--|--------------12-15--|--------------|
G|--12--|---------------------|---------------------|--------------|

Проныра, озорник, любитель книг,  
Ловкач, игрок,  жизнь между строк.  
И потому открыт  ему  
Незримый путь  В   любую суть.


Припев:
Танец злобного гения
На страницах произведения
Это игра без сомнения
Обреченный ждет поражения.


Подсыпать в душу яд всегда он рад   
Всего за час прочтет он вас.    
Он волен взять и поменять
 Строку и с ней   смысл  темы всей.


Припев:
Танец злобного гения
На страницах произведения
Это игра без сомнения
Обреченный ждет поражения.


Открыт  роман  читатель пьян
Разлив вино  –   шагнул  в окно.


Припев:
Танец злобного гения
На страницах произведения
Это игра без сомнения
Обреченный ждет поражения.

Аппликатуры аккордов для гитары на песню “Король и Шут – Танец злобного гения”:

Видео/Клип на песню “Король и Шут – Танец злобного гения”:

Песня “Король и Шут – Танец злобного гения” на Яндекс.Музыка:

Нажмите на звезду, чтобы оценить!

Средняя оценка / 5. Количество оценок:

Оценок пока нет. Поставьте оценку первым.