ДДТ – На небе вороны: аккорды песни

64

Текст песни "ДДТ – На небе вороны" с аккордами для гитары


Перебор №1:

E|---------|---------|---------|---------|
B|---------|---------|---------|---------|
G|-----0---|-----0---|-----0---|-----0---|
D|---2---2-|---2---2-|---2---2-|---1---1-|
A|-2-------|-3-------|-0-------|-2-------|
E|---------|---------|---------|---------|

Перебор №2:

E|---------|---------|---------|---------|
B|---------|---------|---------|---------|
G|---0-0-0-|---0-0-0-|---0-0-0-|---0-0-0-|
D|---2-2-2-|---2-2-2-|---2-2-2-|---1-1-1-|
A|-2-------|-3-------|-0-------|-2-------|
E|---------|---------|---------|---------|

На небе вороны, под небом монахи,
И я между ними в расшитой рубахе,
Лежу на просторе, легка и пригожа,  
И солнце взрослее и ветер моложе.    


[EmМеня отпевали  в громадине храма,    
Была я невеста, прекрасная дама,    
Душа моя рядом стояла и пела,   
Но люди, не веря,  смотрели на  тело.


Судьба и молитва менялись местами,
Молчал мой любимый и крестное знамя,
Лицо его светом едва освещало,   
Простила его, я ему все прощала.    


Весна задрожав от печального звона,  
Смахнула три капли на лики иконы,  
Что   мирно покоилась между руками,
Ее целовало веселое пламя.   


Свеча догорела, упало кадило,    
Земля застонав, превращалась в могилу,
Я бросилась в небо за легкой синицей,
Теперь я на воле, я белая птица.    


Взлетев на прощанье, кружась над родными,
Смеялась я, горе их не понимая,    
Мы   встретимся вскоре, но будем иными,
Есть вечная воля, зовет меня стая.    

Аппликатуры аккордов для гитары на песню “ДДТ – На небе вороны”:

Видео/Клип на песню “ДДТ – На небе вороны”:

Песня “ДДТ – На небе вороны” на Яндекс.Музыка:

Нажмите на звезду, чтобы оценить!

Средняя оценка / 5. Количество оценок:

Оценок пока нет. Поставьте оценку первым.

Подписаться
Уведомление о
guest
0 Комментарий
inline-комментарии
Посмотреть все комментарии