Мурка: аккорды песни

134

Текст песни "Мурка" с аккордами для гитары

ПОКАЗАТЬ/СКРЫТЬ АККОРДЫ

Вступление:

----------------------------------------------------------------------------
--------------------------------------------------1-0-----------------------
-----------------------------2-2-1-2-4--2-1-2-4--------2-1-4-2---2-0----0---
-2-2-1-2-3-2---0-----------------------------------------------------3-2--3-
-----------------3-2-3-2-0--------------------------------------------------
----------------------------------------------------------------------------

------------------------------
------------------------------
------------------------------
-2-2-5-3-2-0------------------
-------------3-2-0------------
------------------------------

Мурка

E||--0--0-----0--1--0------|--5----------------------|--5--4--5--7--5--4--5--7-|
B||--1-----4---------------|--3--1--0--1--0----------|--5----------------------|
G||--2---------------------|--0--------------2-------|--5----------------------|
D||--2---------------------|--2----------------------|--7----------------------|
A||--0---------------------|--2----------------------|--7----------------------|
E||--0---------------------|-------------------------|-------------------------|

|--8--7--5--4--7--5------|--5--3-------3--1-| 		             
|--5---------------------|--3-----6--5------|
|--5---------------------|--3---------------|
|--5---------------------|--0---------------|
|--0---------------------|------------------|
|------------------------|------------------|

--0--0--3--1--0-------------||
--1--------------3-1--0-----||
--2-----------------------2-||
--2-------------------------||
--0-------------------------||
----------------------------||

Прибыла в Одессу банда из Ростова,
В банде были урки шулера.
Банда занималась темными делами,  
А за ней следили  с ГобЧК.   


Бандой правит баба звали ее мурка
Ах какая девица была…
Даже злые урки все боялись Мурки
Воровскую жизнь она вела   


Вот пошли облавы Начались провалы
Много  наших стало пропадать
Приподнялся шухер кто же стал шалавым
Чтоб за смерть других его карать


Ночью было тихо, только ветер свищел,
А в малиновке уж собрался совет,
Все они бандиты, воры, хулиганы
Выбирают свой авторитет.    


Речь держала баба – звали ее Мурка,
Девица сияла  красотой…
Воры ее знали, воры ей гордились
Всю банду за собой она вела.


Раз пошли на дело, выпить захотелось
Мы зашли в  шикарный ресторан
Там она сидела с агентом из УР´а,
А у ней под курткой был наган.


Чтоб не шухариться мы решили смыться
А за это Мурке отомстить..
Одному из урок в кожаной тужурке
Мы сказали Мурку надо бить.


Юрка в ресторане в лоск напился пьяным
И начал Мурку в переулке брать.
Одному из урок в кожаной тужурке
Поручил он Мурку догонять.  


”Здравствуй, моя Мурка, здравствуй, дорогая,
Здравствуй, Мура-Мурочка моя
Аль тебе жилося плохо  по-меж нами
Или не хватало барахла?    


Здравствуй, моя Мурка, здравствуй, дорогая,
Здравствуй, дорогая, и прощай.
Ты ж зашухарила нашу  всю малину,
И за это, падла,  финку получай!”


Вынул Юрка финку, зверски улыбнулся,
Засверкали карие глаза.
И вознил он финку прямо в сердце Мурки….
Мурочка, не встанешь никогда!


Вот лежишь ты, Мурка, на краю дороги,
Гробовая крышка над тобой…
Больше ты не встанешь, шухер не подымешь,
И лягавый плачет  над тобой.  

Аппликатуры аккордов для гитары на песню “Мурка”:

Видео/Клип на песню “Мурка”:

Нажмите на звезду, чтобы оценить!

Средняя оценка / 5. Количество оценок:

Оценок пока нет. Поставьте оценку первым.

Подписаться
Уведомление о
guest
0 Комментарий
inline-комментарии
Посмотреть все комментарии