Король и Шут – Кукла колдуна: аккорды песни

22


Вступление:

                                   
1|----------------------------6--5-5-------6-5------|
2|-6--5-5--3-3--6--5-3--3-5-6---------6-6-------5---|
3|--------------------------------------------------|
4|--------------------------------------------------|
5|--------------------------------------------------|
6|--------------------------------------------------|

Куплет 1:
Темный мрачный коридор, я на цыпочках как вор
Пробираюсь чуть дыша, чтобы не вспугнуть
Тех, кто спит уже давно, тех, кому не все  равно
В чью я комнату тайком желаю заглянуть,  
Чтобы увидеть


Припев:
Как бессонница в час ночной
Меняет, нелюдимая, облик твой,
Чьих невольница ты идей,
Зачем тебе   охотиться на людей?


Проигрыш (2 раза):

                                   
1|----------------------------6--5-5-------6-5------|
2|-6--5-5--3-3--6--5-3--3-5-6---------6-6-------5---|
3|--------------------------------------------------|
4|--------------------------------------------------|
5|--------------------------------------------------|
6|--------------------------------------------------|

Куплет 2:
Крестик на моей груди, на него ты погляди,
Что в тебе способен  он резко изменить,  
Много книжек я читал, много   фокусов видал,
Свою тайну от меня  не пытайся скрыть,  
Я это видел:


Припев:
Как бессонница в час ночной
Меняет, нелюдимая, облик твой,
Чьих невольница ты идей,
Зачем тебе   охотиться на людей?


Куплет 3:
Очень жаль, что ты тогда мне поверить не смогла
В то, что новый твой приятель не такой как все.
Ты осталась с ним вдвоем, не   зная ничего о нем,
Что для всех опасен   он, наплевать тебе,  
И ты попала


Припев:
К настоящему колдуну,
Он загубил   таких, как ты, не одну
Словно куклой и в час ночной
Теперь он может управлять тобой!


Все происходит будто в страшном  сне,
И находиться здесь опасно мне.  


Проигрыш (4 раза):

                                   
1|----------------------------6--5-5-------6-5------|
2|-6--5-5--3-3--6--5-3--3-5-6---------6-6-------5---|
3|--------------------------------------------------|
4|--------------------------------------------------|
5|--------------------------------------------------|
6|--------------------------------------------------|


Аппликатуры аккордов для гитары на песню “Король и Шут – Кукла колдуна”:

Видео/Клип на песню “Король и Шут – Кукла колдуна”:

Песня “Король и Шут – Кукла колдуна” на Яндекс.Музыка:

Это были аккорды на песню легендарной российской хоррор-панк-группы Король и Шут – “Кукла колдуна”. Здесь вы также найдете партитуры аккордов на песню для гитары, для того, чтобы было проще её разучивать.

Если вы найдете какую-нибудь ошибку, дайте знать об этом в комментариях. Заранее спасибо!