ДДТ – Летели облака: аккорды песни

60

Текст песни "ДДТ – Летели облака" с аккордами для гитары

ПОКАЗАТЬ/СКРЫТЬ АККОРДЫ

Вступление:

1-----------------0----------------------------3-1-0------
2---1-1-3-1---1-1---3-1-3-1-3-1-0-1-3-1----0-1------1-1---
3-0-0-----------0-------0---0---0-------------------2-----
4---2-----------------------------------------------3-----
5---3---0-------3-----------------------------------------
6-------3---------------3---3---3-------------------------

1-----------0---1---0--------------------3-1-0--------------
2-1---3-1-------------3-1-0-0-3-1----0-1-------1-1-1-1-3---1
3-2---0---------------0---0--------------------2---2---0-0-0
4-3-1------------------------------------------3---3-------2
5----------------------------------------------------------3
6-----3---------------3---3----------------------------3----

Летели облака  
Летели далеко  
Как мамина рука  
Как папино трико  
Как рыбы-корабли  
Как мысли дурака  
Над стеклами земли  
Летели облака  
Летели облака  

Летели купола,
Дороги и цветы
Звоня в колокола
Беспечные как ты.
Как капли молока,
Как здравствуй  и прощай
Как недопитый чай
Летели облака,
Летели облака.


Летели кирпичи
Солдаты старых  стен,
Богема и печи
Драконы перемен.  
Не страшная война,
Не горькое вино
Печальная страна,
А в ней твое окно
А в ней  твое окно.


Летели не спеша,
Порхали неглиже
Как юная душа
В сгоревшей парандже
В Даос и Вифлеем
К окраине земли
От глупых теорем
Оставленных в пыли
Летели облака  


Зажгу на кухне  свет,
Из века сундука
Где крылья много   лет
Искали седока
Достану разомну
Пристрою на спине
И запущу весну  
И облака во мне
и облака   во мне


Летели облака  
Летели облака  
Летели облака  

Аппликатуры аккордов для гитары на песню “ДДТ – Летели облака”:

Видео/Клип на песню “ДДТ – Летели облака”:

Песня “ДДТ – Летели облака” на Яндекс.Музыка:

Нажмите на звезду, чтобы оценить!

Средняя оценка / 5. Количество оценок:

Оценок пока нет. Поставьте оценку первым.

Подписаться
Уведомление о
guest
0 Комментарий
inline-комментарии
Посмотреть все комментарии