ДДТ – Ветер: аккорды песни

7

Текст песни "ДДТ – Ветер" с аккордами для гитары


Вступление:

4 раза:
E|-0-----------0---------2-3-2-0-|
B|-0-----------1---------3-------|
G|-0-----------2--2-2-0--2-------|
D|-2--2-0-0-2--2-----------------|
A|-2-----3-----0-----------------|
E|-------------0-----------------|

1 раз: E|------------------------------------------------------2-3-2-0| B|0----0-1-----1-1-----1-3-----3-0-----0-1-----1-1----1-3------| G|---0-------0-------2-------2-------0-------0-------2---------| D|-2-------2-------2-------0-------2-------2-------2-----------| A|-------------------------------------------------------------| E|-------------------------------------------------------------|

Куплет 1:
О-пре-крас-ная даль погло-тив-ша-я небо    
Облака как к  любимой прижались к земле    
Где ты и я под простой да не скошенной крышей   
Ищем  друг в друге тепло, что,    что       


Припев:
Что нам Ветер да на это ответит,      
Несущийся мимо, да сломавший крыло.     
И, упав между нами, так недолго любимых,
Разбил он объятья     как простое стекло.


2 раза:
E|-0-----------0---------2-3-2-0-|
B|-0-----------1---------3-------|
G|-0-----------2--2-2-0--2-------|
D|-2--2-0-0-2--2-----------------|
A|-2-----3-----0-----------------|
E|-------------0-----------------|

1 раз: E|------------------------------------------------------2-3-2-0| B|0----0-1-----1-1-----1-3-----3-0-----0-1-----1-1----1-3------| G|---0-------0-------2-------2-------0-------0-------2---------| D|-2-------2-------2-------0-------2-------2-------2-----------| A|-------------------------------------------------------------| E|-------------------------------------------------------------|

Куплет 2:
Мы стояли на прошлом, мы ждали начала,    
Прижимаясь к стене, где исчезли они.  
Где еще одну  жизнь одна смерть обвенчала    
Парой вспышек огня да в эти смутные дни. Что,   что    


Припев:
Что нам Ветер да на это ответит,      
Несущийся мимо, да сломавший крыло.     
И, упав между нами, так недолго любимых,
Разбил он объятья     как простое стекло.


Финальный проигрыш:

E|-0-----------0---------2-3-2-0-|
B|-0-----------1---------3-------|
G|-0-----------2--2-2-0--2-------|
D|-2--2-0-0-2--2-----------------|
A|-2-----3-----0-----------------|
E|-------------0-----------------|

E|------------------------------------------------------2-3-2-0| B|0----0-1-----1-1-----1-3-----3-0-----0-1-----1-1----1-3------| G|---0-------0-------2-------2-------0-------0-------2---------| D|-2-------2-------2-------0-------2-------2-------2-----------| A|-------------------------------------------------------------| E|-------------------------------------------------------------|

Аппликатуры аккордов для гитары на песню “ДДТ – Ветер”:

Видео/Клип на песню “ДДТ – Ветер”:

Песня “ДДТ – Ветер” на Яндекс.Музыка:

Нажмите на звезду, чтобы оценить!

Средняя оценка / 5. Количество оценок:

Оценок пока нет. Поставьте оценку первым.

Подписаться
Уведомление о
guest
0 Комментарий
inline-комментарии
Посмотреть все комментарии