Lou Gramm – Ready Or Not: аккорды для гитары

Текст песни "Lou Gramm – Ready Or Not" с аккордами для гитары

-----------------------------------------------------------------------------
                                  
                    Ready Or Not - Lou Gramm (BASS)
            
-----------------------------------------------------------------------------
Tabbed by: Scotto10

Tuning: Standard tuning

Uploaded Sept 27 2019

=============================================================================

Bass



     E  E  E  E  E  E  E  E     E  E  E  E  E  E  E  E   
G||--------------------------|--------------------------|
D||--------------------------|--------------------------|
A||-----7--------------------|-----7--------------------|
E||--0-----5--7--3--5--2--3--|--0-----5--7--3--5--2--3--|


  E  E  E  E  E  E  E  E     E  E  E  E  E  E  E  E   
--------------------------|--------------------------|
--------------------------|--------------------------|
-----7--------------------|-----7--------------------|
--0-----5--7--3--5--2--3--|--0-----5--7--3--5--2--3--|


  E  E  E  E  E  E  E  E     E  E  E  E  E  E  E  E   
--------------------------|--------------------------|
--------------------------|--------------------------|
-----7--------------------|-----7--------------------|
--0-----5--7--3--5--2--3--|--0-----5--7--3--5--2--3--|


  E  E  E  E  E  E  E  E     E  E  E  E  E  E  E  E   
--------------------------|--------------------------|
--------------------------|--------------------------|
-----7--------------------|-----7--------------------|
--0-----5--7--3--5--2--3--|--0-----5--7--3--5--2--3--|


  E  E  E  E  E  E  E  E     E  E  E  E  E  E  E  E   
--------------------------|--------------------------|
--------------------------|--------------------------|
-----7--------------------|-----7--------------------|
--0-----5--7--3--5--2--3--|--0-----5--7--3--5--2--3--|


  E  E  E  E  E  E  E  E     E  E  E  E  E  S S E  E   
--------------------------|---------------------------|
--------------------------|---------------------------|
-----7--------------------|--------5--7---------3--5--|
--0-----5--7--3--5--2--3--|--5--7--------3--L-5-------|


    E  E  E  E  E  E  E  E     E  E  E  E  E  E  E  E   
|---------------------------|--------------------------|
|*--------------------------|--------------------------|
|*--------------------------|--------------------------|
|---5--5--5-----5--5--5--5--|--5--5--5--5--5--5--5--5--|


  E  E  E  E  E  E  E  E     E  E  E  E  E  E  E  E   
--------------------------|--------------------------|
--------------------------|--------------------------|
--------------------------|--------------------------|
--3--3--3--3--3--3--3--3--|--2--2--2--2--2--2--2--2--|


  E  E  E  E  E  E  E  E     E  E  E  E  E  E  E  E   
--------------------------|--------------------------|
--------------------------|--------------------------|
--------------------------|--------------------------|
--5--5--5--5--5--5--5--5--|--5--5--5--5--5--5--5--5--|


  E  E  E  E  E  E  E  E     E  E  E  E  E  E  E  E   
--------------------------|--------------------------|
--------------------------|--------------------------|
--------------------------|--------------------------|
--3--3--3--3--3--3--3--3--|--2--2--2--2--2--2--2--3--|


  E  E  E  E  E  E  E  E     E  E  E  E  E  E  E  E   
--------------------------|--------------------------|
--------------------------|--------------------------|
--------------------------|--------------------------|
--5--5--5--5--5--5--5--5--|--5--5--5--5--5--5--5--5--|


  E  E  E  E  E  E  E  E     E  E  E  E  E  E  E  E   
--------------------------|--------------------------|
--------------------------|--------------------------|
--------------------------|--------------------------|
--3--3--3--3--3--3--3--3--|--2--2--2--2--2--2--2--2--|


  E  E  E  E  E  E  E  E     E  E  E  E  E  E  E  E   
--------------------------|--------------------------|
--------------------------|--------------------------|
--------------------------|--------------------------|
--5--5--5--5--5--5--5--5--|--5--5--5--5--5--5--5--5--|


  E  E  E  E  E  E  E  E     E  E  E  E  E  E  E  E   
--------------------------|--------------------------|
--------------------------|--------------------------|
--------------2--3--4--5--|--5--5--5--5--5--2--3-----|
--3--3--3--3--------------|-----------------------3--|


  E  E  E  E  E  E  E  E     E  E  E  E  E  E  E  E   
--------------------------|--------------------------|
--------------------------|--------------------------|
-----7--------------------|-----7--------------------|
--0-----5--7--3--5--2--3--|--0-----5--7--3--5--2--3--|


  E  E  E  E  E  E  E  E     E  E  E  E  E  E  E  E   
--------------------------|--------------------------|
--------------------------|--------------------------|
-----7--------------------|-----7--------------------|
--0-----5--7--3--5--2--3--|--0-----5--7--3--5--2--3--|


  E  E  E  E  E  E  E  E     E  E  E  E  E  E  E  E   
--------------------------|--------------------------|
--------------------------|--------------------------|
-----7--------------------|-----7--------------------|
--0-----5--7--3--5--2--3--|--0-----5--7--3--5--2--3--|


  E  E  E  E  E  E  E  E     E  E  E  E  E  S S E  E     
--------------------------|----------------------------||
--------------------------|---------------------------*||
-----7--------------------|--------5--7---------3--5--*||
--0-----5--7--3--5--2--3--|--5--7--------3--L-5--------||


  E  E  E  E  E  E  E  E     E  E  E  E  E  E  E  E   
--------------------------|--------------------------|
--------------------------|--------------------------|
--------------------------|--------------------------|
--5--5--5--5--5--5--5--5--|--5--5--5--5--5--5--5--5--|


  E  E  E  E  E  E  E  E     E  E  E  E  E  E  E  E   
--------------------------|--------------------------|
--------------------------|--------------------------|
--------------------------|--------------------------|
--3--3--3--3--3--3--3--3--|--2--2--2--2--2--2--2--2--|


  E  E  E  E  E  E  E  E     E  E  E  E  E  E  E  E   
--------------------------|--------------------------|
--------------------------|--------------------------|
--------------------------|--------------------------|
--5--5--5--5--5--5--5--5--|--5--5--5--5--5--5--5--5--|


  E  E  E  E  E  E  E  E     E  E  E  E  E  E  E  E   
--------------------------|--------------------------|
--------------------------|--------------------------|
--------------2--3--4--5--|--5--5--5--5--5--2--3-----|
--3--3--3--3--------------|-----------------------3--|


    E  E  E  E  E  E  E  E     E  E  E  E  E  E  E  E   
|---------------------------|--------------------------|
|*--------------------------|--------------------------|
|*-----7--------------------|-----7--------------------|
|---0-----5--7--3--5--2--3--|--0-----5--7--3--5--2--3--|


  E  E  E  E  E  E  E  E     E  E  E  E  E  E  E  E   
--------------------------|--------------------------|
--------------------------|--------------------------|
-----7--------------------|-----7--------------------|
--0-----5--7--3--5--2--3--|--0-----5--7--3--5--2--3--|


  E  E  E  E  E  E  E  E     E  E  E  E  E  E  E  E   
--------------------------|--------------------------|
--------------------------|--------------------------|
-----7--------------------|-----7--------------------|
--0-----5--7--3--5--2--3--|--0-----5--7--3--5--2--3--|


  E  E  E  E  E  E  E  E     E  E  E  E  E  S S E  E     
--------------------------|----------------------------||
--------------------------|---------------------------*||
-----7--------------------|--------5--7---------3--5--*||
--0-----5--7--3--5--2--3--|--5--7--------3--L-5--------||


  E  E  E  E  E  E  E  E     E  E  E  E  E  E  E  E   
--------------------------|--------------------------|
--------------------------|--------------------------|
-----7--------------------|-----7--------------------|
--0-----5--7--3--5--2--3--|--0-----5--7--3--5--2--3--|


  E  E  E  E  E  E  E  E     E  E  E  E  E  E  E  E   
--------------------------|--------------------------|
--------------------------|--------------------------|
-----7--------------------|-----7--------------------|
--0-----5--7--3--5--2--3--|--0-----5--7--3--5--2--3--|


  E  E  E  E  E  E  E  E     E  E  E  E  E  E  E  E   
--------------------------|--------------------------|
--------------------------|--------------------------|
-----7--------------------|-----7--------------------|
--0-----5--7--3--5--2--3--|--0-----5--7--3--5--2--3--|


  E  E  E  E  E  E  E  E     E  E  E  E  E  E  E  E   
--------------------------|--------------------------|
--------------------------|--------------------------|
-----7--------------------|--------5--7--------3--5--|
--0-----5--7--3--5--2--3--|--5--7--------3--5--------|


  E  E  E  E  E  E  E  E     E  E  E  E  E  E  E  E   
--------------------------|--------------------------|
--------------------------|--------------------------|
-----7--------------------|-----7--------------------|
--0-----5--7--3--5--2--3--|--0-----5--7--3--5--2--3--|


  E  E  E  E  E  E  E  E     E  E  E  E  E  E  E  E   
--------------------------|--------------------------|
--------------------------|--------------------------|
-----7--------------------|-----7--------------------|
--0-----5--7--3--5--2--3--|--0-----5--7--3--5--2--3--|


  E  E  E  E  E  E  E  E     E  E  E  E  E  E  E  E   
--------------------------|--------------------------|
--------------------------|--------------------------|
-----7--------------------|-----7--------------------|
--0-----5--7--3--5--2--3--|--0-----5--7--3--5--2--3--|


  E  E  E  E  E  E  E  E     E  E  E  E  E  S S E  E    
--------------------------|---------------------------||
--------------------------|---------------------------||
-----7--------------------|--------5--7---------3--5--||
--0-----5--7--3--5--2--3--|--5--7--------3--L-5-------||




Duration Legend
---------------
W - whole
H - half
Q - quarter
E - 8th
S - 16th
T - 32nd
X - 64th
. - note dotted
|-n-|  - n-tuplets


Tablature Legend
----------------
L - tied note
x - dead note
g - grace note
(n) - ghost note
> - accentuded note
NH - natural harmonic
AH - artificial harmonic
TH - tapped harmonic
SH - semi harmonic
PH - pitch harmonic
h - hammer on
p - pull off
b - bend
br - bendRelease
pb - preBend
pbr - preBendRelease
brb - bendReleaseBend
n/ - tremolo bar dip
n - tremolo bar dive
-/n - tremolo bar Release up
/n - tremolo bar inverted dip
/n - tremolo bar return
-n - tremolo bar Release down
S - shift slide
s - legato slide
/ -  slide into from below or out of upwards
 -  slide into from above or out of downwards
~ - vibrato
W - wide vibrato
tr - trill
TP - tremolo picking
T - tapping
S - slap
P - pop

	
	Аккорды в подборе (аппликатуры) Скрыть	
    
         Не правильный подбор?

    
	
        Только текст
    
	
	
	
        
        
            Оцените подбор:
            
                0 оценок: 0
            
            
        
		
			
                Настроить гитару
            
		
        
             72 
			
                                    
                    Добавить в избранное
                                
            
    

    
    
        Каким боем играть песню Lou Gramm - Ready Or Not? Голосуй!
        Виды гитарного боя и как их играть
        
            Шестёрка  0
            Восьмёрка  0
            Четвёрка  0
            Блатной  0
            Вальсовый  0
            Испанский  0
            Бой Регги  0
            Бой Кантри  0
            Бой Цоя  0
            Бой Высоцкого  0
            Бой Розенбаума  0
            Кавказский бой  0
        
           
        
        
	
	
  		Хотите поделиться видео разбором песни или кавером?
  			Подобрали альтернативную версию песни (например, проще, без баррэ)?
  			Хотите узнать, как играют эту песню, какой бой?

  		Пишите в комментариях
	
	
    
        Поделитесь аккордами и табами песни Ready Or Not с друзьями:
        
        
        
    

    
		
	
	
		
    Видео песни Lou Gramm - Ready Or Not	
		
			Lou Gramm: другие подборы аккордов
			
                Lou Gramm - Lost In The Shadows - аккорды для гитарыLou Gramm - Just Between You And MeLou Gramm - Angel With A Dirty Face                

			 Все аккорды исполнителя
             Популярные аккорды
					
		
            Полезное
            
                Как играть бой, перебор - виды аккомпанемента для акустики и электрогитары
                    Табы вместо нот - как играть по ним соло и бой. Табулатура для начинающих.
                    Выбираем струны для гитары
                    Настройка укулеле (гавайской гитары)
                    
                
            		

	
	
	Комментарии
Важно! Чтобы посмотреть аппликатуру нужного аккорда к песне “Lou Gramm – Ready Or Not“, просто наведите мышку/кликните на сам аккорд.

Видео/Клип на песню “Lou Gramm – Ready Or Not”:

Нажмите на звезду, чтобы оценить!

Средняя оценка 0 / 5. Количество оценок: 0

Оценок пока нет. Поставьте оценку первым.

Подписаться
Уведомление о
guest
0 Комментарий
inline-комментарии
Посмотреть все комментарии
ПОПУЛЯРНЫЕ АККОРДЫ: