Blackmore’s night – Wish You Were Here: аккорды для гитары

Текст песни "Blackmore’s night – Wish You Were Here" с аккордами для гитары

Chorus:		
Em Em9 Em Em
Wish You Were Here...
C       D
Me, oh, my country man,
          G  Em Bsus4
Wish You Were Here...
 Em Em9 Em Em
I Wish You Were Here...

        C           D          G
Don?t you know, the snow is getting colder,
        B
And I miss you like hell,
B7           Em
And I'm feeling blue...
E        Am
I?ve got feelings for you,
      D7        G   Em Esus4add9
Do you still feel the same?
 E       Am
From the first time I laid my eyes on you,
D
I felt joy of living,
G       B
I saw heaven in your eyes...
B7     Em
In your eyes...

Chorus

Am
I miss your laugh, I miss your smile,
     Em  Esus2 Em
I miss everything about you...
Am
Every second?s like a minute,
B
Every minute?s like a day
B7          Em
When you?re far away...
  Em/B   D     G     C(III)
The snow is getting colder, baby,
G           B
I Wish You Were Here...
Em/B   D     C(III)  B
A battlefield of love and fear,
G           B
I Wish You Were Here...
E        Am    D6 G
I?ve got feelings for you,
E         Am       Dsus4 D
From the first time I laid my eyes on you...

Chorus

Tab:		
[E------------------------------------------------------------------------
B------------------------------------------------------------------------
G------------------------------------------------------------------------
D------------------------------------------------------------------------
A------------------------------------------------------------------------
E------------------------------------------------------------------------

--3--------2----3---------------0----0------0--------0----------
-------------------0--------------------------------------3--3--
----------------------------------------------------------------
----------------------------------------------------------------
----------------------------------------------------------------
----------------------------------------------------------------

------0------------------------------------------------------
-----------3----1--0----1--0------------------------------0--
-------------------------------------------------------------
-------------------------------------------------------------
-------------------------------------------------------------
-------------------------------------------------------------

--3--------2----3---------------0----0------0------0--0---------
-------------------0---------------------------------------3----
----------------------------------------------------------------
----------------------------------------------------------------
----------------------------------------------------------------
----------------------------------------------------------------

-----0----------------------3--3--3--3--3------2----------------
--3-------3----1------------------------------------------------
----------------------------------------------------------------
----------------------------------------------------------------
----------------------------------------------------------------
----------------------------------------------------------------

--3--2----0----2----0----2--0--------------------------------
-------------------------------------------------------------
-------------------------------------------------------------
-------------------------------------------------------------
-------------------------------------------------------------
-------------------------------------------------------------

------------------------------------------------------------------------
------------------------------------------------------------------------
------------------------------------------------------------------------
------------------------------------------------------------------------
------------------------------------------------------------------------
------------------------------------------------------------------------

--------------------3--------2----3---------------0----0----
-------------------------------------0----------------------
------------------------------------------------------------
------------------------------------------------------------
------------------------------------------------------------
------------------------------------------------------------

--0--------0----------------0-----------------------------------
----------------3--3-------------3----1--0----1--0--------------
----------------------------------------------------------------
----------------------------------------------------------------
----------------------------------------------------------------
----------------------------------------------------------------

---------------------3--------2----3---------------0----0----
----------------0---------------------0----------------------
-------------------------------------------------------------
-------------------------------------------------------------
-------------------------------------------------------------
-------------------------------------------------------------

--0------0--0--------------0----------------------3--3--3--3--3----
-----------------3------3-------3----1-----------------------------
-------------------------------------------------------------------
-------------------------------------------------------------------
-------------------------------------------------------------------
-------------------------------------------------------------------

--2------------------3--2----0----2----0----2--0--------------
--------------------------------------------------------------
--------------------------------------------------------------
--------------------------------------------------------------
--------------------------------------------------------------
--------------------------------------------------------------

----------------------------0----0------0--------2------0--
-----------------------------------------------------------
-----------------------------------------------------------
-----------------------------------------------------------
-----------------------------------------------------------
-----------------------------------------------------------

--------------------------------------------------2----2----
--3--1--------0---------------------------------------------
-----------------2------------------------------------------
------------------------------------------------------------
------------------------------------------------------------
------------------------------------------------------------

--2----0----0----2-----------------------------------------
------------------------0----------------------------------
-----------------------------------------------------------
-----------------------------------------------------------
-----------------------------------------------------------
-----------------------------------------------------------

----------0----0------0-----------------------------------------
---------------------------3----3------0----3----1--0----3------
----------------------------------------------------------------
----------------------------------------------------------------
----------------------------------------------------------------
----------------------------------------------------------------

--------------------------------------------0-------------------
--1------------------------3----3----3---------3--------3--3----
-----0--2-------------------------------------------------------
----------------------------------------------------------------
----------------------------------------------------------------
----------------------------------------------------------------

--3----3--3----3--------2--------------------------3----2--0--
--------------------------------------------------------------
--------------------------------------------------------------
--------------------------------------------------------------
--------------------------------------------------------------
--------------------------------------------------------------

--2--0----------------------------------3--------2----3-----
---------------------------------------------------------0--
------------------------------------------------------------
------------------------------------------------------------
------------------------------------------------------------
------------------------------------------------------------

----------0----0------0--------0----------------0---------------
------------------------------------3--3-------------3----1--0--
----------------------------------------------------------------
----------------------------------------------------------------
----------------------------------------------------------------
----------------------------------------------------------------

-----------------------------------------3--------2----3-----
--1--0------------------------------0---------------------0--
-------------------------------------------------------------
-------------------------------------------------------------
-------------------------------------------------------------
-------------------------------------------------------------

----------0----0------0------0--0--------------0----------------
-------------------------------------3------3-------3----1------
----------------------------------------------------------------
----------------------------------------------------------------
----------------------------------------------------------------
----------------------------------------------------------------

------3--3--3--3--3------2------------------3--2----0----2----0--
-----------------------------------------------------------------
-----------------------------------------------------------------
-----------------------------------------------------------------
-----------------------------------------------------------------
-----------------------------------------------------------------

--2--0------------------------------------0--0--0--0------0--
-------------------------------------------------------------
-------------------------------------------------------------
-------------------------------------------------------------
-------------------------------------------------------------
-------------------------------------------------------------

--0----0--0----0--0--0--------3--3--2--0--0--2----0--0--------------
--------------------------------------------------------------------
--------------------------------------------------------------------
--------------------------------------------------------------------
--------------------------------------------------------------------
--------------------------------------------------------------------

------0--0--0--0--------0----0--0----0--0--0----2--2----2--2----3--2--
----------------------------------------------------------------------
----------------------------------------------------------------------
----------------------------------------------------------------------
----------------------------------------------------------------------
----------------------------------------------------------------------

------------------------5--5--7--5--5--0----5--0--------------
------------------------7--7--8--7--7--8----7--8--------------
--------------------------------------------------------------
--------------------------------------------------------------
--------------------------------------------------------------
--------------------------------------------------------------

------------------------------------------------------
------------------------------------------------------
------------------------------------------------------
------------------------------------------------------
------------------------------------------------------
------------------------------------------------------

--0--------------------------------------------------------------0----
-----3--3--3--1--1--1--1----0--0----0----0------------1----1--3-------
----------------------------------------------------------------------
----------------------------------------------------------------------
----------------------------------------------------------------------
----------------------------------------------------------------------

--0------1-0--------------------------------------------0--
-------------3---------------------------------------------
-----------------------------------------------------------
-----------------------------------------------------------
-----------------------------------------------------------
-----------------------------------------------------------

--0-------------------1------0----0------------------------------0----
-----3--3--3--1--1---------------------3--3----------1--1--1--3-------
----------------------------------------------------------------------
----------------------------------------------------------------------
----------------------------------------------------------------------
----------------------------------------------------------------------

--0------1-0--------------------------------------0----0----
-------------3----------------------------------------------
------------------------------------------------------------
------------------------------------------------------------
------------------------------------------------------------
------------------------------------------------------------

--0--------1------0-------------------------------------------
-----------------------3--1------1--0-------------------------
---------------------------------------2----------------------
--------------------------------------------------------------
--------------------------------------------------------------
--------------------------------------------------------------

----------0----0------0-------------------------------------------
---------------------------3----3------0----3----1--0----1--3--1--
------------------------------------------------------------------
------------------------------------------------------------------
------------------------------------------------------------------
------------------------------------------------------------------

----------------------3--------2----3---------------0----0----
--1------------------------------------0----------------------
-----2--------------------------------------------------------
--------------------------------------------------------------
--------------------------------------------------------------
--------------------------------------------------------------

--0--------0----------------0-----------------------------------
----------------3--3-------------3----1--0----1--0--------------
----------------------------------------------------------------
----------------------------------------------------------------
----------------------------------------------------------------
----------------------------------------------------------------

---------------------3--------2----3---------------0----0----
----------------0---------------------0----------------------
-------------------------------------------------------------
-------------------------------------------------------------
-------------------------------------------------------------
-------------------------------------------------------------

--0------0--0--------------0----------------------3--3--3--3--3----
-----------------3------3-------3----1-----------------------------
-------------------------------------------------------------------
-------------------------------------------------------------------
-------------------------------------------------------------------
-------------------------------------------------------------------

--2------------------3--2----0----2----0----2--0--------------
--------------------------------------------------------------
--------------------------------------------------------------
--------------------------------------------------------------
--------------------------------------------------------------
--------------------------------------------------------------

----------------------------------------------------------------------------
--------------------1------------------3-------------------------------0----
--------------------------------------------------------------------2-------
----------------------------------------------------------------------------
----------------------------------------------------------------------------
----------------------------------------------------------------------------

----------------------3--------2----3-----------------------
--0------------------------------------0--------------------
-----------2------------------------------------------------
------------------------------------------------------------
------------------------------------------------------------
------------------------------------------------------------

---------------------------------------------------------------------------
--1------------------3------------------------------------0----------------
---------------------------------------------------------------------------
---------------------------------------------------------------------------
---------------------------------------------------------------------------
---------------------------------------------------------------------------

--------------------3--------2----3-----------------------
-------------------------------------0--------------------
----------------------------------------------------------
----------------------------------------------------------
----------------------------------------------------------
----------------------------------------------------------

-------------------------------------------------------------
--1------------------3---------------------------------0-----
-------------------------------------------------0--2-----2--
----------------------------------------------4--------------
-------------------------------------------------------------
-------------------------------------------------------------

---------------------3--------2----3-----------------------
--0-----------------------------------0--------------------
-----------------------------------------------------------
-----------------------------------------------------------
-----------------------------------------------------------
-----------------------------------------------------------

---------------------------------------------------------------------------
--1------------------3------------------------------------0----------------
---------------------------------------------------------------------------
---------------------------------------------------------------------------
---------------------------------------------------------------------------]
Важно! Чтобы посмотреть аппликатуру нужного аккорда к песне “Blackmore’s night – Wish You Were Here“, просто наведите мышку/кликните на сам аккорд.

Видео/Клип на песню “Blackmore’s night – Wish You Were Here”:

Нажмите на звезду, чтобы оценить!

Средняя оценка 0 / 5. Количество оценок: 0

Оценок пока нет. Поставьте оценку первым.

Подписаться
Уведомление о
guest
0 Комментарий
inline-комментарии
Посмотреть все комментарии
ПОПУЛЯРНЫЕ АККОРДЫ: