LiSA – Datte Atashi No Hero: аккорды для гитары

Текст песни "LiSA – Datte Atashi No Hero" с аккордами для гитары

*Strum once

the outro is easier to play and sounds better if you use power chords


[Intro]

e|-------------------8-----------------------------------8-----------------|
B|---------------------11----------------------------------11--------------|
G|--------10-8------------8--8-10-12-10-8------10-8-----------8-8-10-12----|
D|---8-10-------8-8-----------------------8-10------8-8--------------------|
A|-------------------------------------------------------------------------|
E|-------------------------------------------------------------------------|

e|-------------------8-----------------------------------------------------|
B|---------------------11----------------------------------------9---11-9--|
G|--------10-8------------8--8-10-12-10-8--10-11-8-10-11-8-10-11---8-------|
D|---8-10-------8-8--------------------------------------------------------|
A|-------------------------------------------------------------------------|
E|-------------------------------------------------------------------------|


[Verse]
Eb
Kimi ga akirameru toko ukabanai kedo
                                   B      Db
Nani mo nai nasakenai tteiu hi mo arun desho

Eb
Jinsei ni ichido no you na doryoku no shunkan o
                            Ab         Bb
Ikutsu mo mukaechaisou nara miteitain da yo

Cm           Bb          Eb
"isshou" ga ikko datte "issho ni" o ikurademo
Cm      Bb             Eb                   Bb
Nani mo nai atashi ni imi o kureta saikyou da


[Chorus]
Ab                   Bb               Eb         Gm
Furee tte furee tte nando mo iwaseru nante iu sainou?
     Gm*     Bb*    Ab*    Fm            Bb
Zutto tachimukatte yo yuuki o kureteru yo
Ab                  Bb                 Eb     Gm
Furee tte furee tte chippoke subete ga sakenderu
    Gm*     Bb* Ab*   Cm*       Bb*  Ab*
Sono me o mitereba atashi mo hashireru
Gm          Ab    Bb  Bb*
Saikou no finaare  o  kizande mite yo


[Outro]
Eb Fm  Gm  Ab
Eb       Fm        Gm   Ab
Datte atashi no hiiroo


e|-------------------8---------------------------|
B|---------------------11------------------------|
G|--------10-8------------8--8-10-12-10-8---8----|
D|---8-10-------8-8-------------------------8----|
A|------------------------------------------6----|
E|-----------------------------------------------|
Важно! Чтобы посмотреть аппликатуру нужного аккорда к песне “LiSA – Datte Atashi No Hero“, просто наведите мышку/кликните на сам аккорд.

Видео/Клип на песню “LiSA – Datte Atashi No Hero”:

Нажмите на звезду, чтобы оценить!

Средняя оценка 0 / 5. Количество оценок: 0

Оценок пока нет. Поставьте оценку первым.

Подписаться
Уведомление о
guest
0 Комментарий
inline-комментарии
Посмотреть все комментарии
ПОПУЛЯРНЫЕ АККОРДЫ: