LL Cool J – The Breakthrough: аккорды для гитары

Текст песни "LL Cool J – The Breakthrough" с аккордами для гитары

-----------------------------------------------------------------
THE BREAKTRHOUGH - LL Cool J
-----------------------------------------------------------------

Tabbed By : MRFairbrother

Tuning: Standard

[Intro]

(no bass)

[Verse 1]
                                                                         x4
G|-----------------|-----------------|-----------------|-----------------|
D|-----------------|-----------------|-----------------|-----------------|
A|-9--7--9---------|-----------------|-9--7--9---------|-----------------|
E|-----------------|-----------------|-----------------|-----------------|

[Verse 2]
                                                                         x4
G|-----------------|-----------------|-----------------|-----------------|
D|-----------------|-----------------|-----------------|-----------------|
A|-9--7--9---------|-----------------|-9--7--9---------|-----------------|
E|-----------------|-----------------|-----------------|-----------------|

[Verse 3]
                                                                         x4
G|-----------------|-----------------|-----------------|-----------------|
D|-----------------|-----------------|-----------------|-----------------|
A|-9--7--9---------|-----------------|-9--7--9---------|-----------------|
E|-----------------|-----------------|-----------------|-----------------|

[Verse 4]
                                                                         x4
G|-----------------|-----------------|-----------------|-----------------|
D|-----------------|-----------------|-----------------|-----------------|
A|-9--7--9---------|-----------------|-9--7--9---------|-----------------|
E|-----------------|-----------------|-----------------|-----------------|

[Verse 5]
                                                                         x4
G|-----------------|-----------------|-----------------|-----------------|
D|-----------------|-----------------|-----------------|-----------------|
A|-9--7--9---------|-----------------|-9--7--9---------|-----------------|
E|-----------------|-----------------|-----------------|-----------------|

[Outro]
                                                                         x2
G|-----------------|-----------------|-----------------|-----------------|
D|-----------------|-----------------|-----------------|-----------------|
A|-9--7--9---------|-----------------|-9--7--9---------|-----------------|
E|-----------------|-----------------|-----------------|-----------------|

G|-----------------|
D|-----------------|
A|-9---------------|
E|-----------------|
Важно! Чтобы посмотреть аппликатуру нужного аккорда к песне “LL Cool J – The Breakthrough“, просто наведите мышку/кликните на сам аккорд.

Видео/Клип на песню “LL Cool J – The Breakthrough”:

Нажмите на звезду, чтобы оценить!

Средняя оценка 0 / 5. Количество оценок: 0

Оценок пока нет. Поставьте оценку первым.

Подписаться
Уведомление о
guest
0 Комментарий
inline-комментарии
Посмотреть все комментарии
ПОПУЛЯРНЫЕ АККОРДЫ: