Living Colour – Type: аккорды для гитары

Текст песни "Living Colour – Type" с аккордами для гитары

T Y P E
                       LIVING COLOUR

               transcribed by Rutger Tuller
                  [email protected]


    .     .     .     .      .     .     .     .    .    .    .    .
|------------------------|-----------------------|--------------------------|
|------------------------|-----------------------|--------------------------|
|------------------------|-----------------------|--------------------------|
|------------------------|-----------------------|--------------------------|
|----------------2--3--4-|----------------2--3-4-|-------------2-3-4--------|
|-2--------2--5----------|-3--2-----2--5---------|3--2----2-5---------------|

    .     .     .     .      .     .     .    .     .    .    .    .
|------------------------|-------2----------2----|-----2--4---------2-|--5--|
|------------------------|----4----------2-------|---3-----------3----|-----|
|------------------------|-4--------4--3-------3-|2-----------2-------|-----|
|------------------------|-----------------------|--------------------|-----|
|----------------2--3-4--|-----------------------|--------------------|-----|
|-3--2-----2--5----------|-----------------------|--------------------|-----|


I'm looking for music by :
VAN HALEN - LIVING COLOUR - RAGE AGAINST THE MACHINE - RED HOT CHILI PEPPERS -
AEROSMITH - STEVE VAI - QUEEN - KRAVITZ - DWEEZIL ZAPPA (AND HIS FATHER) -
EXTREME - SOUNDGARDEN - UGLY KID JOE - STONE TEMPLE PILOTS - JOE SATRIANI

So mail it !
Важно! Чтобы посмотреть аппликатуру нужного аккорда к песне “Living Colour – Type“, просто наведите мышку/кликните на сам аккорд.

Видео/Клип на песню “Living Colour – Type”:

Нажмите на звезду, чтобы оценить!

Средняя оценка 0 / 5. Количество оценок: 0

Оценок пока нет. Поставьте оценку первым.

Подписаться
Уведомление о
guest
0 Комментарий
inline-комментарии
Посмотреть все комментарии
ПОПУЛЯРНЫЕ АККОРДЫ: