Louis Armstrong – When Youre Smiling: аккорды для гитары

Текст песни "Louis Armstrong – When Youre Smiling" с аккордами для гитары

Louis Armstrong (1956): https://www.youtube.com/watch?v=yfsmmk93H3I
Source: http://sheetmusicsinger.com/greatestsongs/wp-content/uploads/2018/09/When-Youre-Smiling.pdf

[Verse 1]

e|---------------------------------------------------|
B|---3-3-3-3-1-3-3-3-3-1-----------------3-3-----1-1-|
G|-----------------------3-3-3-2-0-2-3-2-----2-2-----|
D|---------------------------------------------------|
A|---------------------------------------------------|
E|---------------------------------------------------|

e|---------------------------------------------------|
B|-------1-1-------1---------------------------------|
G|-2-0-2-----3-2-0-----------------------------------|
D|---------------------------------------------------|
A|---------------------------------------------------|
E|---------------------------------------------------|

[Chorus]

e|---------------------------------------------------|
B|-----------------------------------1-1-------------|
G|-------3-3-----2-2---0-0-0-------0-------0-3-3-0-2-|
D|---0-3-----0-3-----3-------3-1-1-------1-----------|
A|---------------------------------------------------|
E|---------------------------------------------------|

e|---------------------------------------------------|
B|-------------------1-1-----------------3-3-1-0-1---|
G|-2-2-0-------0-1-1-----3-2-3---0-2-3-3-------------|
D|-------3-2-3-----------------4-------------------0-|
A|---------------------------------------------------|
E|---------------------------------------------------|

e|---------------------------------------------------|
B|-------------3-3---4-4-3-3-------------------------|
G|---3-3-3-2-3-----0---------3-----------------------|
D|-3-------------------------------------------------|
A|---------------------------------------------------|
E|---------------------------------------------------|

[Verse 2]

e|---------------------------------------------------|
B|---3-3-3-3-1-3-3-3-3-1-----------------3-3-----3-3-|
G|-----------------------3-3-3-2-0-2-3-2-----2-2-----|
D|---------------------------------------------------|
A|---------------------------------------------------|
E|---------------------------------------------------|

e|---------------------------------------------------|
B|-------1-1-------1---------------------------------|
G|-2-0-2-----3-2-0-----------------------------------|
D|---------------------------------------------------|
A|---------------------------------------------------|
E|---------------------------------------------------|

[Chorus]

e|---------------------------------------------------|
B|-----------------------------------1-1-------------|
G|-------3-3-----2-2---0-0-0-------0-------0-3-3-0-2-|
D|---0-3-----0-3-----3-------3-1-1-------1-----------|
A|---------------------------------------------------|
E|---------------------------------------------------|

e|---------------------------------------------------|
B|-------------------1-1-----------------3-3-1-0-1---|
G|-2-2-0-------0-1-1-----3-2-3---0-2-3-3-------------|
D|-------3-2-3-----------------4-------------------0-|
A|---------------------------------------------------|
E|---------------------------------------------------|

e|---------------------------------------------------|
B|-------------3-3---4-4-3-3-------------------------|
G|---3-3-3-2-3-----0---------3-----------------------|
D|-3-------------------------------------------------|
A|---------------------------------------------------|
E|---------------------------------------------------|

[Chorus]

e|---------------------------------------------------|
B|-----------------------------------1-1-------------|
G|-------3-3-----2-2---0-0-0-------0-------0-3-3-0-2-|
D|---0-3-----0-3-----3-------3-1-1-------1-----------|
A|---------------------------------------------------|
E|---------------------------------------------------|

e|---------------------------------------------------|
B|-------------------1-1-----------------3-3-1-0-1---|
G|-2-2-0-------0-1-1-----3-2-3---0-2-3-3-------------|
D|-------3-2-3-----------------4-------------------0-|
A|---------------------------------------------------|
E|---------------------------------------------------|

e|---------------------------------------------------|
B|-------------3-3---4-4-3-3-------------------------|
G|---3-3-3-2-3-----0---------3-----------------------|
D|-3-------------------------------------------------|
A|---------------------------------------------------|
E|---------------------------------------------------|
Важно! Чтобы посмотреть аппликатуру нужного аккорда к песне “Louis Armstrong – When Youre Smiling“, просто наведите мышку/кликните на сам аккорд.

Видео/Клип на песню “Louis Armstrong – When Youre Smiling”:

Нажмите на звезду, чтобы оценить!

Средняя оценка 0 / 5. Количество оценок: 0

Оценок пока нет. Поставьте оценку первым.

Подписаться
Уведомление о
guest
0 Комментарий
inline-комментарии
Посмотреть все комментарии
ПОПУЛЯРНЫЕ АККОРДЫ: