Azero – Bajo Cero: аккорды для гитары

Текст песни "Azero – Bajo Cero" с аккордами для гитары

[Intro]
    A#5    A#5-G#5-F#5               C#5     D#5-C#5-C5               
e|----------------------------------------------------------------------|
B|-11v------11-9------------------9------------------------------------|
G|----------------11v-------10-11---10v------11-10-8----6p5--6p5--6/3--|
D|----------------------------------------------------------------------|
A|----------------------------------------------------------------------|
E|----------------------------------------------------------------------|

Acordes:
A#5 - F#5 - C#5 - G#5

Toda la cancion repite los mismos acordes
En algunas partes es con palm mute, otras solo una vez y dejando sonar, otras tocando rapido, ...
Escuchar la cancion para pillarle los diferentes ritmos a cada parte.

Riff:
Suena en algunas partes mientras otra guitarra hace los acordes en palm mute

e|-------------------------------|
B|-------------------------------|
G|-----6-----8-----10-----8---6--|
D|-8-8---8-8---8-8----8-8---8----| x4 (Cada vuelta coincide con cada pasada de un acorde)
A|-------------------------------|
E|-------------------------------|

[Solo]
2'24''

e|----------------------------------------------------------------------------|
B|--------------------------------4---------------------------------------4v--|
G|-3v---5-5h6-6-5-3--------5-5h6---6-5-6-3v-----3-5h6v--6-5-3v-------5-6-----|
D|-------------------6v-----------------------------------------6v------------|
A|----------------------------------------------------------------------------|
E|----------------------------------------------------------------------------|

------------------------------------------------------------------------------

[Intro]

A#5 - F#5 - C#5 - G#5 
*riff*

[Verse]
(bajo+bateria)

Caminos como arrugas
en resquebrajada piel,
largos y fríos
como el invierno en teruel.

A#5                      F#5 
Tal vez la suerte nos regale una ilusión
          C#5             G#5
que facil es caer en la desesperación.


A#5        F#5 
Trabajando bajo cero
C#5           G#5
aguantando el aguacero
A#5        F#5 
condenados a la ruina
C#5        F#5
congelados en una mina.

A#5 - F#5 - C#5 - G#5 
*riff*

[Verse]
(bajo+bateria)
Olivos pardos de endurecida raíz.
El rojo de la tierra no es sólo un matiz.

A#5                      F#5 
Los hormigueros no están hechos para mi
        C#5                  G#5
por eso se que nunca más me alejaré de ti.


A#5        F#5 
Trabajando bajo cero
C#5           G#5
aguantando el aguacero
A#5        F#5 
condenados a la ruina
C#5        F#5
congelados en una mina.

A#5        F#5 
Trabajando bajo cero
C#5           G#5
aguantando el aguacero
A#5        F#5 
condenados a la ruina
C#5        F#5
congelados en una mina.

[Solo]
A#5 - A#5 - C#5 - G#5
[Solo]

[Verse]
A#5         F#5
Corazones helados
C#5         G#5
de pasiones abandonados.
A#5     F#5
Liberad vuestra mente
C#5            G#5
y dejad que el sol os caliente.

[Bridge]
A#5 - A#5 - C#5 - G#5
"Una pequeña gota de agua..."


A#5        F#5 
Trabajando bajo cero
C#5           G#5
aguantando el aguacero
A#5        F#5 
condenados a la ruina
C#5        F#5         A#5
congelados en una mina.
Важно! Чтобы посмотреть аппликатуру нужного аккорда к песне “Azero – Bajo Cero“, просто наведите мышку/кликните на сам аккорд.

Видео/Клип на песню “Azero – Bajo Cero”:

Нажмите на звезду, чтобы оценить!

Средняя оценка 0 / 5. Количество оценок: 0

Оценок пока нет. Поставьте оценку первым.

Подписаться
Уведомление о
guest
0 Комментарий
inline-комментарии
Посмотреть все комментарии
ПОПУЛЯРНЫЕ АККОРДЫ:
Adblock
detector