Azero – Mujer De Acero: аккорды для гитары

Текст песни "Azero – Mujer De Acero" с аккордами для гитары

Azero - Mujer de acero

[Intro] 0:00

Primera parte:

E|-----------------------------------------------------------------|
B|-----------------------------------------------------------------|
G|-----------------------------------------------------------------|
D|--1-----1--1--1--1-----1--1--1--1-----1--1--1--------------------|
A|--0-----0--0--0--0-----0--0--0--0-----0--0--0--3--2--------------|
E|-----------------------------------------------------5--3--5--3--|

E|-----------------------------------------------------------------|
B|-----------------------------------------------------------------|
G|-----------------------------------------------------------------|
D|-----------------------------------------------------------------|
A|--3-----3--3--3--3-----3--3--3--3-----3--3--3--3--2--------------|
E|--1-----1--1--1--1-----1--1--1--1-----1--1--1--------5--3--5--3--|

E|-----------------------------------------------------------------|
B|-----------------------------------------------------------------|
G|-----------------------------------------------------------------|
D|-----------------------------------------------------------------|
A|--5-----5--5--5--5-----5--5--5--5-----5--5--5--3--2--------------|
E|--3-----3--3--3--3-----3--3--3--3-----3--3--3--------5--3--5--3--|

E|--------------------------------------------------------|
B|--------------------------------------------------------|
G|--------------------------------------------------------|
D|-1------1--1--1--1-----1--1--1-----3-----------5--------|
A|-0------0--0--0--0-----0--0--0--------3-----------5-----|
E|--------------------------------1--------1--3--------3--|

Segunda parte:

E|---------------------------------------------------------------------------------------------------------|

B|---------------------------------------------------------------------------------------------------------|

G|---------------------------------------------------------------------------------------------------------|

D|-1--------2-2-2-3-2-----------------2-2-2-3-2--------------------------------3--------5------1---------|

A|-0-------------------5-3-3----------------------5-3-5-5---5-3-2-3-5-3------------3--------5----0---------|

E|------------------------1---------------------------3---------------3-5v-----1-----1--3-----3------------|

[verso] 0:28

A5 F5 C5 G5
"yo naci en un pequeño pueblo..."

[estribillo] 0:55

F5 G5 A5
"Mujer, mujer de acero..."

Punteo del estribillo:

E|--------------------------------------------------------------|
B|--------------------------------------------------------------|
G|--------------------------------------------------------------|
D|-2-3-2---5-3-2---2-3-2---5-3-2---2-3-2---5-3-2----5-0-3-0-2---|
A|-------3-------3-------3-------3-------3-------3--------------|
E|--------------------------------------------------------------|

                                               Let ring---
E|--------------------------------------------------------|
B|--------------------------------------------------------|
G|--------------------------------------------5-----------|
D|-2-3-2---5-3-2---2-3-2---5-3-2----5-0-3-0-2-------------|
A|-------3-------3-------3-------3------------------------|
E|--------------------------------------------------------|

[verso] 1:09

A5 F5 C5 G5
"Un muchacho me rondaba..."

[estribillo] 1:36

F5 G5 A5
"Mujer, mujer de acero..."

Punteo del estribillo 2:

E|--------------------------------------------------------------|
B|--------------------------------------------------------------|
G|--------------------------------------------------------------|
D|-2-3-2---5-3-2---2-3-2---5-3-2---2-3-2---5-3-2----5-0-3-0-2---|
A|-------3-------3-------3-------3-------3-------3--------------|
E|--------------------------------------------------------------|


E|-----------------------------------------------------|
B|-----------------------------------------------------|
G|-----------------------------------------------------|
D|-2-3-2---5-3-2---2-3-2---5-3-2----5-0-3-0-2----------|
A|-------3-------3-------3-------3-------------3v-5v--|
E|-----------------------------------------------------|

[Verso] 1:56

A5 F5 C5 G5
(sin voz)

Punteo:

E|---------------------5--3---------3-----------3-----------------------------------|
B|-----------5--3------------5-6v-----6-5v--5-6---6-5-5-3-----------3---------------|
G|-5--2------------5--------------------------------------5-4v--4-5---5-4-4-2----2--|
D|--------5---------------------------------------------------------------------5----|
A|-----------------------------------------------------------------------------------|
E|-----------------------------------------------------------------------------------|

[Puente] 2:10
E|-----------------------------------------------------------------|
B|-----------------------------------------------------------------|
G|-----------------------------------------------------------------|
D|--1-----1--1--1--1-----1--1--1--1-----1--1--1--------------------|
A|--0-----0--0--0--0-----0--0--0--0-----0--0--0--3--2--------------|
E|-----------------------------------------------------5--3--5--3--|

E|-----------------------------------------------------------------|
B|-----------------------------------------------------------------|
G|-----------------------------------------------------------------|
D|-----------------------------------------------------------------|
A|--3-----3--3--3--3-----3--3--3--3-----3--3--3--3--2--------------|
E|--1-----1--1--1--1-----1--1--1--1-----1--1--1--------5--3--5--3--|

E|-----------------------------------------------------------------|
B|-----------------------------------------------------------------|
G|-----------------------------------------------------------------|
D|-----------------------------------------------------------------|
A|--5-----5--5--5--5-----5--5--5--5-----5--5--5--3--2--------------|
E|--3-----3--3--3--3-----3--3--3--3-----3--3--3--------5--3--5--3--|

E|--------------------------------------------------------|
B|--------------------------------------------------------|
G|--------------------------------------------------------|
D|-1------1--1--1--1-----1--1--1-----3-----------5--------|
A|-0------0--0--0--0-----0--0--0--------3-----------5-----|
E|--------------------------------1--------1--3--------3--|

[verso] 2:24

A5 F5 C5 G5
"Luego pasaron los años..."


[estribillo] 3:19

F5 G5 A5
"Mujer, mujer de acero..."

*Punteo del estribillo 2*

[Verso] 3:36

A5 F5 C5 G5
(sin voz)

Punteo

E|--------------------------------------------------------------------------------|
B|--------------------8---6-6--5-6--5-6-5-6-8-8-6-5v--5-6-8-8--10-8v------10v-|
G|-9-9--7-9--7-9-7-9-------------------------------------------------------------|
D|--------------------------------------------------------------------------------|
A|--------------------------------------------------------------------------------|
E|--------------------------------------------------------------------------------|

A5 F5 C5 G5
"Un buen dia todo cambio..."

[Estribillo] 4:24

F5 G5 A5
(Sin voz)

Punteo estribillo agudo

E|--------------------------------------------------------------------|
B|--------------------------------------------------------------------|
G|----9-10-12-10-9----9-10-12-10-9----9-10-12-10-9-12-10-9-10-9-------|
D|-10--------------10--------------10---------------------------12-10-|   (X2)
A|--------------------------------------------------------------------|
E|--------------------------------------------------------------------|

[Verso] 4:38

A5 [G5-A5] F5 G5
"Limpiando la mierda de los demas..."

[Estribillo] 5:17

F5 G5 A5
"Mujer, mujer de acero..."

*Punteo estribillo agudo*

[final]

(F5 G5)x3 A5
"Ya sabes que..."

*Punteo estribillo agudo* (solo primera parte y repetida hasta el final)
Важно! Чтобы посмотреть аппликатуру нужного аккорда к песне “Azero – Mujer De Acero“, просто наведите мышку/кликните на сам аккорд.

Видео/Клип на песню “Azero – Mujer De Acero”:

Нажмите на звезду, чтобы оценить!

Средняя оценка 0 / 5. Количество оценок: 0

Оценок пока нет. Поставьте оценку первым.

Подписаться
Уведомление о
guest
0 Комментарий
inline-комментарии
Посмотреть все комментарии
ПОПУЛЯРНЫЕ АККОРДЫ:
Adblock
detector