Bishop Briggs – River: аккорды для гитары

Текст песни "Bishop Briggs – River" с аккордами для гитары

*** Scroll down or click here 
https://tabs.ultimate-guitar.com/b/bishop_briggs/river_crd_1861697id_20072016date.htm
for chords and lyrics***

e|--------|
B|--------|
G|--------|
D|--------|
A|5-5-5-5-|
E|--------|

[Intro]
(Like a river......  shut your mouth and run me like a river)

  (     Repeat 3x     )
e|---------------------------------------|
B|--6-6-6-6-6-6--------------6-6-6-6-----|
G|------------------5--------------------|
D|---------------3-5-3-------------------|
A|-5-5-5-5-5-5--------------5-5-5-5------|
E|---------------------------------------|


[Verse 1]
(How do we fall in love...... hair-pin trigger)
  ***Same as "intro"***


[Pre-Chorus]
(Don't you say...... shut your mouth and run me like a river)

  Don't you  say                                 one  breath          so   shut    run
e|----------------------------------------------------------------------------------|
B|-10-8-------5-5-5-5--6-6-6-6--5-5-5-5--6-6--10-8-----5-5-5-5--6-6-6-6-------------|
G|--------------------------------------------------------------------------6-6-6---|
D|0--0---------------------------------------0--0-----------------------------------|
A|-----------3-3-3-3--5-5-5-5--3-3-3-3--5-5-----------3-3-3-3--5-5-5-5--------------|
E|-------------------------------------------------------------------------5-5-5-5--|

[Chorus]
(Shut your mouth baby stand and deliver... and run me like a river)

(Dm C F C) x2

[Instrumental]

e|------------------------------------------------|
B|--6-6-6-6-6-6--------------6-6-6-6--------------|
G|------------------5-----------------------------|
D|---------------3-5-3----------------------------|
A|-5-5-5-5-5-5--------------5-5-5-5-5-(slide down)|
E|------------------------------------------------|

[Verse 2]
(Tales of an endless heart..... one kiss away from killing)

  (     Repeat 3x     )         one kiss away from killing
e|-------------------------------------------------------|
B|--6-6-6-6-6-6------------------------------------------|
G|------------------5------------------------------------|
D|---------------3-5-3-----------------------------------|
A|-5-5-5-5-5-5-------------------5-------5---------5-----|
E|-------------------------------------------------------|

[Pre-Chorus]
(Don't you say...... shut your mouth and run me like a river)

  Don't you  say                                 one  breath          so   shut
e|----------------------------------------------------------------------------------|
B|-10-8-------5-5-5-5--6-6-6-6--5-5-5-5--6-6--10-8-----5-5-5-5--6-6-6-6-------------|
G|--------------------------------------------------------------------------6-6-6---|
D|0--0---------------------------------------0--0-----------------------------------|
A|-----------3-3-3-3--5-5-5-5--3-3-3-3--5-5-----------3-3-3-3--5-5-5-5--------------|
E|-------------------------------------------------------------------------5-5-5-5--|

[Chorus]
(Shut your mouth baby stand and deliver... and run me like a river)

(Dm C F C) x2


["Intro"]
(Like a river......  shut your mouth and run me like a river)

  (     Repeat 2x     )           
e|-----------------------|
B|--6-6-6-6-6-6----------|       Dm C
G|------------------5----|
D|---------------3-5-3---|
A|-5-5-5-5-5-5-----------|
E|-----------------------|


[Bridge]

Dm
Hey! Ooh oh oh
Hey! Ooh oh oh
(Like a river!)
              C
Hey! Ooh oh oh
Ooh oh oh
Dm
 Like a river!


[Chorus]

(Shut your mouth baby stand and deliver... and run me like a river)

(Dm C F C) x2


***Chords and lyrics***

[Intro]

Dm
 Like a river
        F
 Like a river
Dm
 Like a river
        F
 Like a river
Dm
 Like a river
        F
 Like a river
Dm
Shut your mouth and run me like a river


[Verse 1]

Dm                     F
How do you fall in love?
Dm                               F
Harder than a bullet could hit ya
Dm                   F
How do we fall apart?
Dm
Faster than a hair pin trigger


[Pre-Chorus]

Dm        C              Dm            C
Don't you say, don't you say it, don't say
          Dm          C                     Dm
Don't you say it, one breath and it'll just break it
   A
So shut your mouth and run me like a river


[Chorus]

Dm
Shut your mouth
Baby, stand and deliver
C
Holy hands oh they make me a sinner
F
 Like a river
Like a river
C
Shut your mouth and run me like a river
Dm
Choke this love till the veins start to shiver
C
One last breath till the tears start to whither
F
 Like a river
Like a river
C
Shut your mouth and run me like a river

Dm F Dm

[Verse 2]
Dm                       F
Tales of an endless heart
Dm                              F
Cursed is the fool who's willing
Dm                         F
Can't change the way we are
Dm
One kiss away from killing


[Pre-Chorus]

Dm        C              Dm            C
Don't you say, don't you say it, don't say
          Dm          C                     Dm
Don't you say it, one breath and it'll just break it
   A
So shut your mouth and run me like a river


[Chorus]

Dm
Shut your mouth
Baby, stand and deliver
C
Holy hands oh they make me a sinner
F
 Like a river
Like a river
C
Shut your mouth and run me like a river
Dm
Choke this love till the veins start to shiver
C
One last breath till the tears start to whither
F
 Like a river
Like a river
C
Shut your mouth and run me like a river


["Intro"]

Dm
 Like a river
        F
 Like a river
Dm
 Like a river
        F
 Like a river
Dm
 Like a river
        F
 Like a river
Dm
Shut your mouth and run me like a river


[Bridge]

Dm
Hey! Ooh oh oh
Hey! Ooh oh oh
(Like a river!)
              C
Hey! Ooh oh oh
Ooh oh oh
Dm
 Like a river!


[Chorus]

Dm
Shut your mouth
Baby, stand and deliver
C
Holy hands oh they make me a sinner
F
 Like a river
Like a river
C
Shut your mouth and run me like a river
Dm
Choke this love till the veins start to shiver
C
One last breath till the tears start to whither
F
 Like a river
Like a river
C
Shut your mouth and run me like a river
Важно! Чтобы посмотреть аппликатуру нужного аккорда к песне “Bishop Briggs – River“, просто наведите мышку/кликните на сам аккорд.

Видео/Клип на песню “Bishop Briggs – River”:

Нажмите на звезду, чтобы оценить!

Средняя оценка 0 / 5. Количество оценок: 0

Оценок пока нет. Поставьте оценку первым.

Подписаться
Уведомление о
guest
0 Комментарий
inline-комментарии
Посмотреть все комментарии
ПОПУЛЯРНЫЕ АККОРДЫ: