Neil Sedaka – Laughter In The Rain: аккорды для гитары

Текст песни "Neil Sedaka – Laughter In The Rain" с аккордами для гитары

Tabbed by: 6METAL6BASSIST6
E-mail: [email protected]

Tuning: EADG

0:10

G|--------------------10------------------------------10----------|
D|------------10-------------10---------------10--------------10--|
A|8-------------------------------8-------------------------------|
E|----------------------------------------------------------------|

G|----------------------------------------------------10------------|
D|--------------------10----------------------10--------------8/10--|
A|------------10--------------10--8---------------------------------|
E|8-----------------------------------------------------------------|

G|--------------------10------------------------------10----------|
D|------------10-------------10---------------10--------------10--|
A|8-------------------------------8-------------------------------|
E|----------------------------------------------------------------|

G|----------------------------------------------------------------|
D|--------------------10------------------------------------------|
A|------------10--------------10--8-----------8-----------8---7---|
E|8---------------------------------------------------------------|

G|----------------------------------------------------------------|
D|--------------------------------5-----------5---5-----------5---|
A|5-----------5---5-----------5-----------------------------------|
E|----------------------------------------------------------------|

G|--------------------------------|
D|--------------------------------|
A|3-----------3---3---------------|
E|--------------------------------|

0:36

G|----------------------------------------------------------------|
D|------------1-------1-----------------------------------3-------|
A|1-----------------------3---1-----------------------3-------3---|
E|--------------------------------4-----------1-------------------|

G|----------------------------------------------------------------|
D|------------1-------1-------------------------------------------|
A|1-----------------------3---1-----------------------------------|
E|--------------------------------4-----------3---1-------3---4---|

G|----------------------------------------------------------------|
D|------------1-------1-----------------------------------3---1---|
A|1-----------------------3---1-----------------------3-----------|
E|--------------------------------4-----------1-------------------|

G|--------------------------------|
D|--------------------------------|
A|4-----------4---4-----------4---|
E|--------------------------------|

G|----------------------------------------------------------------|
D|----------------------------------------------------------------|
A|3-----------3---3-----------3---3---------------------------3-/-|
E|----------------------------------------------------------------|

0:58

G|--------------------10------------------------------10----------|
D|------------10-------------10---------------10--------------10--|
A|8-------------------------------8-------------------------------|
E|----------------------------------------------------------------|

G|--------------------------------------------10------------------|
D|--------------------10------------------------------8h10--------|
A|------------10--------------10--8---------------------------10--|
E|8-------------------------------------------------------8-------|

G|--------------------10------------------------------10----------|
D|------------10-------------10---------------10--------------10--|
A|8-------------------------------8-------------------------------|
E|----------------------------------------------------------------|

G|----------------------------------------------------------------|
D|--------------------10------------------------------------------|
A|------------10--------------10--8-----------8-----------8---7---|
E|8---------------------------------------------------------------|

G|----------------------------------------------------------------|
D|--------------------------------5-----------5---5-----------5---|
A|5-----------5---5-----------5-----------------------------------|
E|----------------------------------------------------------------|

G|--------------------------------|
D|--------------------------------|
A|3-----------3---3---------------|
E|--------------------------------|

1:23

G|----------------------------------------------------------------|
D|------------1-------1-----------------------------------3-------|
A|1-----------------------3---1-----------------------3-------3---|
E|--------------------------------4-----------1-------------------|

G|----------------------------------------------------------------|
D|------------1-------1-------------------------------------------|
A|1-----------------------3---1-----------------------------------|
E|--------------------------------4-----------3---1-------3---4---|

G|----------------------------------------------------------------|
D|------------1-------1-----------------------------------3---1---|
A|1-----------------------3---1-----------------------3-----------|
E|--------------------------------4-----------1-------------------|

G|--------------------------------|
D|--------------------------------|
A|4-----------4---4-----------4---|
E|--------------------------------|

G|----------------------------------------------------------------|
D|----------------------------------------------------------------|
A|3-----------3---3-----------3---3-----------------------3---/---|
E|----------------------------------------------------------------|

1:45

G|--------------------10------12--10----------12-------------------|
D|------------10-/12---------------------------------------12------|
A|8---------------------------------------------------10/12----10-|
E|-----------------------------------------------------------------|

G|--------------------------------------------10/12-12--10------------|
D|--------------------10------------------------------------10-12-10-|
A|------------10----------10------8-----------------------------------|
E|8---------------------------8---------------------------------------|

G|------------------------10-------------------10/12-----10----------|
D|------------10------12------1210--------------------------12------|
A|8--------------------------------8-----------------------------10-|
E|-------------------------------------------------------------------|

G|----------------------------------------------------------------|
D|--------------------10--7---------------------------------------|
A|------------10--------------10--8-----------8-----------8---7---|
E|8---------------------------------------------------------------|

G|----------------------------------------------------------------|
D|--------------------------------5-----------5---5-----------5---|
A|5-----------5---5-----------5-----------------------------------|
E|----------------------------------------------------------------|

G|--------------------------------|
D|--------------------------------|
A|3-----------3---3---------------|
E|--------------------------------|

2:12

G|----------------------------------------------------------------|
D|------------1-------1-----------------------------------3-------|
A|1-----------------------3---1-----------------------3-------3---|
E|--------------------------------4-----------1-------------------|

G|----------------------------------------------------------------|
D|------------1-------1-------------------------------------------|
A|1-----------------------3---1-----------------------------------|
E|--------------------------------4-----------4---1---------------|

G|----------------------------------------------------------------|
D|------------1-------1-----------------------------------3---1---|
A|1-----------------------3---1-----------------------3-----------|
E|--------------------------------4-----------1-------------------|

G|----------------------------------------------------------------|
D|------------------------1-------------------------------10-----|
A|4-----------4---4-----------4---3-----------3---3---------------|
E|----------------------------------------------------------------|

2:31

G|----------------------------------------------------------------|
D|------------1-------1-----------------------------------3-------|
A|1-----------------------3---1-----------------------3-------3---|
E|--------------------------------4-----------1-------------------|

G|----------------------------------------------------------------|
D|------------1-------1-------------------------------------------|
A|1-----------------------3---1-----------------------------------|
E|--------------------------------4-----------3---1-------3---4---|

G|----------------------------------------------------------------|
D|------------1-------1-----------------------------------3---1---|
A|1-----------------------3---1-----------------------3-----------|
E|--------------------------------4-----------1-------------------|

G|------------------------------------|
D|------------------------------------| fades out here.
A|4-----------4---4-----------4---3---|
E|------------------------------------|
Важно! Чтобы посмотреть аппликатуру нужного аккорда к песне “Neil Sedaka – Laughter In The Rain“, просто наведите мышку/кликните на сам аккорд.

Видео/Клип на песню “Neil Sedaka – Laughter In The Rain”:

Нажмите на звезду, чтобы оценить!

Средняя оценка 0 / 5. Количество оценок: 0

Оценок пока нет. Поставьте оценку первым.

Подписаться
Уведомление о
guest
0 Комментарий
inline-комментарии
Посмотреть все комментарии
ПОПУЛЯРНЫЕ АККОРДЫ: