Pink Floyd – Wish You Were Here: аккорды песни

40

Текст песни "Pink Floyd – Wish You Were Here" с аккордами для гитары

ПОКАЗАТЬ/СКРЫТЬ АККОРДЫ

Вступление:

e:----------------|--3---3-3-3--|-------------|--3---3-3-3----|
B:----------------|--3---3-3-3--|-------------|--3---3-3-3----|
G:----------------|--0---0-0-0--|-----0-------|--0---0-0-0----|
D:----------0--2--|--2---2-2-2--|--2-----2--0-|--0---0-0-0----|
A:-----0/2--------|-------------|-------------|---------------|
E:--3-------------|-------------|-------------|---------------|

e:----------------|--3---3-3-3--|--------------|--3--3-3-3--------|
B:----------------|--3---3-3-3--|--------------|--3--3-3-3--------|
G:----------------|--0---0-0-0--|--------------|--0--0-0-0--------|
D:----------0--2--|--2---2-2-2--|--2--0--------|--0--0-0-0--------|
A:-----0/2--------|-------------|--------2--0--|------------------|
E:--3-------------|-------------|--------------|------------------|

e:---------------3--3-3-3-3--3-3-3-3-3--|
B:---------------3--3-3-3-3--3-3-3-3-3--|
G:---------------0--0-0-0-0--0-0-0-0-0--|
D:-------0-------0--0-0-0-0--0-0-0-0-0--|
A:--0/2----------2--2-2-2-2--2-2-2-2-2--|
E:----------3----3--3-3-3-3--3-3-3-3-3--|

Lead 1:

e:-------------------------------------------|
B:--------3---5-----3------------------------|
G:---2/4---------4------4/2/0----------------|
D:-----------------------------0-------0--0--|
A:--------------------------------1/2--------|
E:-------------------------------------------|

Lead 2:

e:---3/5--3--------------------------|
B:---3/5--3--3/5--3-----3/5--53--0---|
G:-----------2/4--2--0--2/4--42--0---|
D:-----------------------------------|
A:-----------------------------------|
E:-----------------------------------|

Lead 3:

e:----------------------------------------------------|
B:--------3-----5--5b(7)-----3----------3--5----------|
G:---2/4-----4------------4-----2--4/6--------4/6--2--|
D:----------------------------------------------------|
A:----------------------------------------------------|
E:----------------------------------------------------|

Lead 4:

e:-----------------------------------------------|
B:-------3-----5--5b(7)--3-----3----------3------|
G:--2/4-----4---------------4-----2--2/4------0--|
D:-----------------------------------------------|
A:-----------------------------------------------|
E:-----------------------------------------------|

RYTHM:

--3---3-3----3----3-3-3--3---3-3----3----3-3-3--0---0-0----0----0-0-0--
--0---0-0----0----0-0-0--2---2-2----2----2-2-2--1---1-1----1----1-1-1--
--0---0-0----0----0-0-0--3---3-3----3----3-3-3--2---2-2----2----2-2-2--
--0---0-0----0----0-0-0--0---0-0----0----0-0-0--2---2-2----2----2-2-2--
--2---2-2-2--2----2-2-2--0---0-0-0--0----0-0-0--0---0-0-0--0----0-0-0--
--3---3-3-3--3----3-3-3--0---0-0-0--0----0-0-0--0---0-0-0--0----0-0-0--

So, so ya think you can tell
heaven from hell, blue skies from pain, can you tell a green   field
from a cold steel rail? А smile from a veil? Do ya think ya can tell?
did they get you to trade, your hero’s for ghosts, hot ashes for trees
hot air for a cool breeze, cold comfort for change, did you exchange,
a walk on part in the war, for a lead role in a cage?


How I wish, how I wish you were here,
Were just two lost soles simming in a fish bowl, year after year,
Running over the same old ground, but have we found the same old fears,
wish you were here

Аппликатуры аккордов для гитары на песню “Pink Floyd – Wish You Were Here”:

Видео/Клип на песню “Pink Floyd – Wish You Were Here”:

Песня “Pink Floyd – Wish You Were Here” на Яндекс.Музыка:

Нажмите на звезду, чтобы оценить!

Средняя оценка / 5. Количество оценок:

Оценок пока нет. Поставьте оценку первым.

Подписаться
Уведомление о
guest
0 Комментарий
inline-комментарии
Посмотреть все комментарии