A-Ha – Take On Me: аккорды песни

51

Текст песни "A-Ha – Take On Me" с аккордами для гитары

ПОКАЗАТЬ/СКРЫТЬ АККОРДЫ
Вступление:

 
E|-
Bm 
2-2-------
E 
0-0--0-4-4-5-7-
A 
5-5-5-0---
D 
2-2--2-
A/C# 
0-0-2-0-|
B|-----3-0-0------------------------3----------------------|
G|----------------------------------------------------------| x2
D|----------------------------------------------------------|
A|----------------------------------------------------------|
E|----------------------------------------------------------|

 
E|-
Bm 
2-2-------
E 
0-0--0-4-4-5-7-
D/F# 
5-5-5-2---
Esus2 
2-2--2-
E 
0-0-0---|
B|-----3-0-0------------------------3----------------------|
G|----------------------------------------------------------| x1
D|----------------------------------------------------------|
A|----------------------------------------------------------|
E|----------------------------------------------------------|

Куплет 1:
Bm 
Talking 
 
aw
E 
ay, 
 
 
A 
I don’t know what  
D 
I’m to  
A/C# 
say
Bm 
I’ll say it anywa
E 
y,To
A 
day’s another d
D 
ay to f
A/C# 
ind 
 
you
Bm 
Shyin’ 
 
a
E 
way, 
 
 
F#m 
I’ll be coming for your l
D 
ove, 
 
OK?

Припев:
A 
Take
E/G# 
  on me
F#m 
  
 
 (ta
D 
ke on me)
A 
Take
E/G# 
  me on
F#m 
   (ta
D 
ke on me)
A 
I’ll
E/G# 
  be  go
F#m 
ne 
 
   
D 
 
in a day o
A 
 
tw
E 
 
  
D/F# 
  
E 

Куплет 2:
 
So,  
Bm 
needless to sa
E 
 
I
A 
’m odds and ends,  
D 
but 
 
I’l
A/C# 
 
be
 
stum
Bm 
bling 
 
aw
E 
ake 
 
s
A 
lowly learning t
D 
hat 
 
lif
A/C# 
e is OK,
 
S
Bm 
ay after  
E 
me, 
 
 
F#m 
it’s no better to be  
D 
safe than sorry

Припев:
A 
Take
E/G# 
  on me
F#m 
  
 
 (ta
D 
ke on me)
A 
Take
E/G# 
  me on
F#m 
   (ta
D 
ke on me)
A 
I’ll
E/G# 
  be  go
F#m 
ne 
 
   
D 
 
in a day o
A 
 
tw
E 
 
  
D/F# 
  
E 

Проигрыш:
C#m 
 
G 
C#m 
 
G 
Bm 
 
E 

Куплет 3:
 
Oh,  
Bm 
things that you sa
E 
y, 
 
yea
A 
h is it life or  
D 
just 
 
to
A/C# 
  
 
play
 
My w
Bm 
orries 
 
awa
E 
y, you’re a
A 
ll the things I’ve g
D 
ot to r
A/C# 
emember
Bm 
       You are shying  
E 
away,
F#m 
I’ll be coming for you  
D 
anyway

Припев:
A 
Take
E/G# 
  on me
F#m 
  
 
 (ta
D 
ke on me)
A 
Take
E/G# 
  me on
F#m 
   (ta
D 
ke on me)
A 
I’ll
E/G# 
  be  go
F#m 
ne 
 
   
D 
 
in a day o
A 
 
tw
E 
 
  
D/F# 
  
E 

A 
Take
E/G# 
  on me
F#m 
  
 
 (ta
D 
ke on me)
A 
Take
E/G# 
  me on
F#m 
   (ta
D 
ke on me)
A 
I’ll
E/G# 
  be  go
F#m 
ne 
 
   
D 
 
in a day o
A 
 
tw
E 
 
  
D/F# 
  
E 

N.C.
Take on me
N.C.
Take on me


Аппликатуры аккордов для гитары на песню “A-Ha – Take On Me”:

Видео/Клип на песню “A-Ha – Take On Me”:

Песня “A-Ha – Take On Me” на Яндекс.Музыка:

Нажмите на звезду, чтобы оценить!

Средняя оценка / 5. Количество оценок:

Оценок пока нет. Поставьте оценку первым.

Подписаться
Уведомление о
guest
0 Комментарий
inline-комментарии
Посмотреть все комментарии