Пикник – Фиолетово-черный: аккорды песни

27

Вступление:

e-3--5--6--5--3--3--2--3--6--3--5--6--5--3--3--2--3--
b-------3--------3--------3--------4--------4--3--3--
g-------0--------0--------2--------0--------3--2--0--
d-------0--------0--------0-----------------0--0--0--
a----------------------------------------------------
e----------------------------------------------------

Проигрыш:

e-------3--5--3-------3--5--3-------5--3--5-------5--3--5-------5--4--5-------5--3--5-------3--5--3--2--3--2-
b----3-------------3-------------3-------------3-------------4-------------3-------------3-------------------
g-0-------------0-----------------------------------------0---------------------------0----------------------
d-----------------------------0-------------0---------------------------0------------------------------------
a------------------------------------------------------------------------------------------------------------
e------------------------------------------------------------------------------------------------------------
e-------3--5--3-------3--5--3-------5--3--5-------5--3--5-------5--4--5-------5--3--5--6-
b----3-------------3-------------3-------------3-------------4-------------3-----------3-
g-0-------------0-----------------------------------------0----------------------------2-
d-----------------------------0-------------0---------------------------0--------------0-
a----------------------------------------------------------------------------------------
e----------------------------------------------------------------------------------------

Видно дьявол тебя целовал  
В красный рот, тихо плавясь от зноя.   
И лица беспокойный овал   
Гладил бархатной темной рукою   


Припев:
Если можешь беги, рассекая круги,
Только чувствуй себя обреченной.
Стоит солнцу зайти, вот и я   
Стану вмиг фиолетово-черным,


Фиолетово-фиолетово-черный,
Фиолетово-фиолетово-черный


Да, сегодня позволено все  
Что кружишь  в себе так увлеченно   
Видишь, я над тобою кружу
Это я фиолетово-черный   


Припев:
Если можешь беги, рассекая круги,
Только чувствуй себя обреченной.
Стоит солнцу зайти, вот и я   
Стану вмиг фиолетово-черным,


Проигрыш:


Нет, не хватит еще и еще
Нет, не хватит, ведь было такое   
Он лица беспокойный овал  
Гладил бархатной темной…   


Фиолетово-фиолетово-черный
Фиолетово-фиолетово-черный


Проигрыш:
     А фиолетово… } – 2 раза

Аппликатуры аккордов для гитары на песню “Пикник – Фиолетово-черный”:

Видео/Клип на песню “Пикник – Фиолетово-черный”:

Песня “Пикник – Фиолетово-черный” на Яндекс.Музыка: