Red Hot Chili Peppers – Californication: аккорды песни

46

Вступление:

e|-----------------------------|---------------------------|
B|---------0-1-----------------|---------5-----------------|
G|----------------------0-2----|------------------4------2-|
D|---2-------------------------|-------5-------------------|
A|-0------------------3--------|-----3----------5------3---|
E|------------------1----------|---------------3------1----|

Phycic spies from China
Try to steal your mind’s elation
Little girls from Sweden
Dream of silver screen quotations
And if you want these kind of dreams
It’s Californication.

It’s the end of the world
And all of western civilization
The sun may rise in the East
At least it settles in a final location
It’s understood that Hollywood
Sell’s Californication)

(start strumming)

Pay your Surgeon very well
To break the spell of aging
Celebrity skin is this your chin
Or is it that war your waging.


Припев:
First born unicorn
Hard core soft porn
Dream of Californication
Dream of Californication


(start picking again)

Marry me girl be my fairy to the world
Be my very own constellation
А teenage bride with a baby inside
Getting high on information
And buy me a star from the boulevard
It’s Californication

Space may be the final frontier
But it’s made in a Hollywood basement
Cobain can you hear the spheres
Singing song from station to station
And Alderaan’s not far away it’s Californication

Born and raised by those who praise
Control of population everybody’s been there and
I don’t mean on vacation


Припев:
First born unicorn
Hard core soft porn
Dream of Californication
Dream of Californication


Гитарное соло:

e|----9----------9^-------------------------
B|-10---97--10---7--7-7p5---------5-7^-5----
G|------------------------6-6--4-6--------6-
D|------------------------------------------
A|------------------------------------------
E|------------------------------------------

e|----9-12-14-----9-12-14^-17-16-14-12-14-12----12----
B|-10----------10----------------------------14----14-
G|----------------------------------------------------
D|----------------------------------------------------
A|----------------------------------------------------
E|----------------------------------------------------

e|----------12----14^-12----12----------12-10-9----|
B|-14-14-14----14--------14----14-12-10---------10-|
G|-------------------------------------------------|
D|-------------------------------------------------|
A|-------------------------------------------------|
E|-------------------------------------------------|

(picking)

Destruction leads to a very rough road
But it also breeds creation
And earthquakes are to a girl’s guitar
They’re just another good vibration
And tidal waves couldn’t save the world
From Californication

Pay your surgeon very well
To break the spell of aging
Sicker than the rest There is no test
But this is what your craving


Припев:
First born unicorn
Hard core soft porn
Dream of Californication
Dream of Californication

Аппликатуры аккордов для гитары на песню “Red Hot Chili Peppers – Californication”:

Видео/Клип на песню “Red Hot Chili Peppers – Californication”:

Песня “Red Hot Chili Peppers – Californication” на Яндекс.Музыка:

Нажмите на звезду, чтобы оценить!

Средняя оценка / 5. Количество оценок:

Оценок пока нет. Поставьте оценку первым.