Михаил Круг – Владимирский централ: аккорды песни

14

Вступление:

                                 
e---------------------------------------
b-----3--5--7--0----2--3--5--3--2-------
g---------------------------------------
d---------------------------------------
a---------------------------------------
e---------------------------------------

Перебором:

e---------------------------------------           
b--7--5^3^2--0--------5^3^2--3--5--7--8-7
g--------------2--2----------------------
d---------------------------------------
a---------------------------------------
e---------------------------------------

1 куплет (перебором, соло-гитара):
     Весна опять пришла
     И лучики тепла   
     Доверчиво глядят в мое окно  
     Опять защемит грудь   
     И в душу влезет грусть   
     По памяти пройдет со мной


Проигрыш:

e-------------------------------------------
b--7-7-7-8--8-7-5-8-7---3-3-3-5---5-3-2-3-0-
g-------------------------------------------
d-------------------------------------------
a-------------------------------------------
e-------------------------------------------

Ритм-гитара:

e------------------------------------------
b--7-7-7-8--8--5-10-8-7---3-3-3--5---5-3-2-
g------------------------------------------
d------------------------------------------
a------------------------------------------
e------------------------------------------

2 куплет (ритм-гитара):
Пойдет разворошит
И вместе согрешит
С той девочкой, что так давно любил
С той девочкой ушла
С той девочкой пришла  
Забыть ее не   хватит сил


Припев:
     Владимирский централ ветер северный   
     Этапом из Твери зла немерено   
     Лежит на сердце тяжкий груз
     Владимирский централ ветер северный
     Когда я банковал жизнь размеренно
     Но не очко обычно губит, а к одиннадцати туз  


Проигрыш:

e-------------------------------------------
b--7-7-7-8--8-7-5-8-7---3-3-3-5---5-3-2-3-0-
g-------------------------------------------
d-------------------------------------------
a-------------------------------------------
e-------------------------------------------

Ритм-гитара:

e------------------------------------------
b--7-7-7-8--8--5-10-8-7---3-3-3--5---5-3-2-
g------------------------------------------
d------------------------------------------
a------------------------------------------
e------------------------------------------

3 куплет:
Там за окном зэка
Проталина тонка  
И всё ж ты не долга, моя судьба
Я радуюсь что здесь
Хоть это-то но  есть
Как мне твоя   любовь нужна


Припев:
     Владимирский централ ветер северный   
     Этапом из Твери зла немерено   
     Лежит на сердце тяжкий груз
     Владимирский централ ветер северный
     Когда я банковал жизнь размеренно
     Но не очко обычно губит, а к одиннадцати туз  


Соло-гитара: (ритм как в куплете)

e---------------------------------------3--2--1--2----
b------------2-5-3-2-2-3-------2--3--5----------------
g--0-2-4-3-4-------------0-2-4------------------------
d-----------------------------------------------------
a-----------------------------------------------------
e-----------------------------------------------------
e---5--3----------3--2--0-------------2--3------------
b----------3--2------------2--3----^5---------2-------
g-4------4----------------------------------3---3--^4-
d---------------4-------------------------------------
a-----------------------------------------------------
e-----------------------------------------------------

Припев:
     Владимирский централ ветер северный   
     Этапом из Твери зла немерено   
     Лежит на сердце тяжкий груз
     Владимирский централ ветер северный
     Когда я банковал жизнь размеренно
     Но не очко обычно губит, а к одиннадцати туз  


Концовка (2 раза):

e-------------------------------------------
b--7-7-7-8--8-7-5-8-7---3-3-3-5---5-3-2-3-0-
g-------------------------------------------
d-------------------------------------------
a-------------------------------------------
e-------------------------------------------

Ритм-гитара:

e------------------------------------------
b--7-7-7-8--8--5-10-8-7---3-3-3--5---5-3-2-
g------------------------------------------
d------------------------------------------
a------------------------------------------
e------------------------------------------

Аппликатуры аккордов для гитары на песню “Михаил Круг – Владимирский централ”:

Видео/Клип на песню “Михаил Круг – Владимирский централ”:

Песня “Михаил Круг – Владимирский централ” на Яндекс.Музыка:

Это были аккорды на песню Михаила Круга – “Владимирский централ”. Здесь вы также найдете партитуры аккордов на песню для гитары, для того, чтобы было проще её разучивать.

Если вы найдете какую-нибудь ошибку, дайте знать об этом в комментариях. Заранее спасибо!