Булат Окуджава – Грузинская песня (Виноградная косточка): аккорды песни

32

e--0-----------------1-----3-----1-------------------
h|-------1-----------1---------3---3-----3-----3-----
g|-----2---2-----2-----2-----2-------2-----2-----2---
d|---2-------2-----2-----2-0-------------------------
a|-0-------------------------------------------------
E----------------------------------------------------

e--1-----------------------------0-------------------
h|-------0-----------0-----------1---------0---0-----
g|-----0---0-----0-----0-------0---0-----1-------1---
d|---0-------0-----0-----0---2-------2---------------
a--------------3-------------------------------------
E|-3-----------------------------------0-------------

Виноградную косточку в теплую землю зарою,   
И лозу поцелую, и спелые гроздья сорву,     
И друзей созову, на любовь свое сердце настрою…   
А иначе зачем на земле этой вечной живу?     


Собирайтесь-ка, гости мои, на мое угощение,  
Говорите мне прямо в лицо, кем пред вами слыву,     
Царь небесный пошлет мне прощение за прегрешения…
А иначе зачем на земле этой вечной живу?     


В темно-красном своем будет петь для меня моя Дали,
В черно-белом своем преклоню перед нею главу,  
И заслушаюсь я, и умру от любви и печали…
А иначе зачем на земле этой вечной живу?    


И когда заклубится закат, по углам залетая,   
Пусть опять и опять предо мной проплывут наяву     
Синий буйвол, и белый орел, и форель золотая…   
А иначе зачем на земле этой вечной живу?     


Если 2 гитары, то Соло играем под проигрыш аккордов:

e-----------------------------------------------
h|---0-1--1-1-1-0-1-5-3--0-1-3--3-3-3-1-3-5-----
g|-2--------------------------------------------
d-----------------------------------------------

e-----------------------------------------------
h|---0-1--1-1-1-0-1-5-3--3-1-0-0-0-5-0-1--------
g|-2-------------------------------------2------
d-----------------------------------------------

e|-----0--0-0-0---0-3-1----0-1-1-1-1-0-1-3-4----
h|-1-3----------3--------3----------------------
g-----------------------------------------------
d-----------------------------------------------

e-----------------------------------------------
h|---0-1--1-1-1-0-1-5-3--3-1-0-0-0-5-0-1--------
g|-2-------------------------------------2------
d-----------------------------------------------

Аппликатуры аккордов для гитары на песню “Булат Окуджава – Грузинская песня (Виноградная косточка)”:

Видео/Клип на песню “Грузинская песня (Виноградная косточка)”:

Песня “Грузинская песня (Виноградная косточка)” на Яндекс.Музыка:

Нажмите на звезду, чтобы оценить!

Средняя оценка / 5. Количество оценок:

Оценок пока нет. Поставьте оценку первым.