Neil Young – Dreamin Man: аккорды для гитары

Текст песни "Neil Young – Dreamin Man" с аккордами для гитары

DREAMIN' MAN (Bassline)
As recorded by Neil Young
(From the 1992 Album HARVEST MOON)

Words and Music by Neil Young
Transcribed by Slowhand

Gtr I (E A D G) - 'Tim Drummond - Bass'

 [Intro]
 Q=102
 4/4
 Gtr I
   Q.   E Q  Q    Q.   E Q  E E   Q.   E Q  Q    Q.   E Q  E E
G|--------------|---------------|--------------|---------------|
D|-5----5-5--5--|-------------5-|--------------|---------------|
A|--------------|-7----7-7--7---|-3----3-3--3--|-3----3-3--3-5-|
E|--------------|---------------|--------------|---------------|


   Q.   E Q  Q    Q.   E Q  Q    Q.   E Q  Q    Q.   E Q  E E
G|--------------|--------------|--------------|---------------||
D|-5----5-5--5--|-3----3-3--3--|--------------|---------------||
A|--------------|--------------|-3----3-3--3--|-3----3-3--3-5-||
E|--------------|--------------|--------------|---------------||


  [1st - 3rd Verses]
     Q.   E Q  Q    Q.   E Q  E E   Q.   E Q  Q    Q.   E Q  E E
G||---------------|---------------|--------------|----------------|
D||o-5----5-5--5--|-------------5-|--------------|----------------|
A||o--------------|-7----7-7--7---|-3----3-3--3--|-3----3-3--3-5--|
E||---------------|---------------|--------------|----------------|


   Q.   E Q  Q    Q.   E Q  Q    Q.   E Q  Q    Q.   E Q  E E
G|--------------|--------------|--------------|---------------|
D|-5----5-5--5--|-3----3-3--3--|--------------|---------------|
A|--------------|--------------|-3----3-3--3--|-3----3-3--3-5-|
E|--------------|--------------|--------------|---------------|


   Q.   E Q  Q    Q.   E Q  E E   Q.   E Q  Q    Q.   E Q  E E
G|--------------|---------------|--------------|---------------|
D|-5----5-5--5--|-------------5-|--------------|---------------|
A|--------------|-7----7-7--7---|-3----3-3--3--|-3----3-3--3-5-|
E|--------------|---------------|--------------|---------------|


   Q.   E Q  Q    Q  E E Q  Q    Q.   E Q  Q    Q.   E Q  E E
G|--------------|--------------|--------------|---------------||
D|-5----5-5--5--|-3--3-3-3--3--|--------------|---------------||
A|--------------|--------------|-3----3-3--3--|-3----3-3--3-5-||
E|--------------|--------------|--------------|---------------||


 [Chorus]
   Q.   E Q  Q    Q.   E Q  Q    Q.   E Q  Q    E E E E E E Q
G|--------------|--------------|--------------|----------------||
D|-5----5-5--5--|--------------|--------------|----------------||
A|--------------|-7----7-7--7--|-3----3-3--3--|-5-5-5-5-5-5-5--||
E|--------------|--------------|--------------|----------------||


 [Interlude]
   W          W          Q.   E +H       Q  E E +H       Q  E E +H
G|----------|----------|---------------|---------------|---------------|
D|----------|----------|---------------|---------------|---------------|
A|----------|----------|-3----5-(5)----|-3----5-(5)----|-3--7-5-(5)----|
E|-3--------|-3--------|---------------|----5----------|---------------|


   W          W          Q.   E +H       Q  E E +H       Q  E E +H      3x
G|----------|----------|---------------|---------------|----------------||
D|----------|----------|---------------|---------------|---------------o||
A|----------|----------|-3----5-(5)----|-3----5-(5)----|-3--7-5-(5)----o||
E|-3--------|-3--------|---------------|----5----------|----------------||


 [Outro]
   Q.   E Q  Q    Q.   E Q  E E   Q.   E Q  Q    Q.   E Q  E E
G|--------------|---------------|--------------|---------------|
D|-5----5-5--5--|-------------5-|--------------|---------------|
A|--------------|-7----7-7--7---|-3----3-3--3--|-3----3-3--3-5-|
E|--------------|---------------|--------------|---------------|


   Q.   E Q  Q    Q  E E Q  Q    Q.   E Q  Q    Q.   E Q  E E
G|--------------|--------------|--------------|---------------|
D|-5----5-5--5--|-3--3-3-3--3--|--------------|---------------|
A|--------------|--------------|-3----3-3--3--|-3----3-3--3-5-|
E|--------------|--------------|--------------|---------------|


   Q.   E Q  Q    Q.   E Q  E E   Q.   E Q  Q    Q.   E Q  E E
G|--------------|---------------|--------------|---------------|
D|-5----5-5--5--|-------------5-|--------------|---------------|
A|--------------|-7----7-7--7---|-3----3-3--3--|-3----3-3--3-5-|
E|--------------|---------------|--------------|---------------|


   Q.   E Q  Q    Q  E E Q  Q    Q.   E Q  Q    W          +W
G|--------------|--------------|--------------|----------|--------*|
D|-5----5-5--5--|-3--3-3-3--3--|--------------|----------|--------*|
A|--------------|--------------|-7----7-7--7--|-6--------|-(6)----*|
E|--------------|--------------|--------------|----------|--------*|
         
************************************
Duration Legend

W - whole; H - half; Q - quarter; E - 8th; S - 16th; a - acciaccatura; 
+ - note tied to previous; . - note dotted;
Duration letters will always appear directly above the note/fret number it represents the
duration for.  Duration letters with no fret number below them represent rests.
Uncapitalized letters represent notes that are staccato (1/2 duration). 

|  (n)   -  note tied to previous
**************************************
Важно! Чтобы посмотреть аппликатуру нужного аккорда к песне “Neil Young – Dreamin Man“, просто наведите мышку/кликните на сам аккорд.

Видео/Клип на песню “Neil Young – Dreamin Man”:

Нажмите на звезду, чтобы оценить!

Средняя оценка 0 / 5. Количество оценок: 0

Оценок пока нет. Поставьте оценку первым.

Подписаться
Уведомление о
guest
0 Комментарий
inline-комментарии
Посмотреть все комментарии
ПОПУЛЯРНЫЕ АККОРДЫ: