Neil Diamond – Song Sung Blue: аккорды для гитары

Текст песни "Neil Diamond – Song Sung Blue" с аккордами для гитары


Muziek/Tekst: Neil Diamond
Producer: Neil Diamond and Tom Catalano
Jaar: 1972
Legende:
- e = eight note
- q = quart note
- B = Basic Rhythm = quart note pointed, eight note, quart note pointed, eight note (very soft, ghost)
- . = pinted
- R = quart rest

[Intro]
                                                                                e r q q q
G|-5--------|-3--------|-2--------|-0--------|----------|----------|----------|------------||
D|----------|----------|----------|----------|----------|----------|----------|------------||
A|----------|----------|----------|----------|-3--------|-1--------|-2--------|-------2-2--||
E|----------|----------|----------|----------|----------|----------|-----1----|-3---3------||


[Verse 1]
   B  Song sung blue
G|----------|----------|----------|-0--0-----|----------|-0--0-----|----------|----------|
D|----------|----------|-0--0-----|----------|-0--0-----|----------|----------|----------|
A|-3--3-----|-3--3-----|----------|----------|----------|----------|-3--3-----|-3--3-----|
E|-----3--3-|-----3--3-|-----3--3-|-----3--3-|----------|-----3--3-|-----3--3-|-----3--3-|

Me and you ...       2/4 q    q 4/4                       q q q q    q q q q   B
G|----------|----------|-5--------|----------|----------|----------|-0-------|----------|----------|
D|----------|----------|----------|-3--3-----|-3-2-0----|-0-0-0-0--|---------|----------|----------|
A|-3--3-----|-3--3-----|-----3----|-----3--3-|-------3--|----------|-----0-2-|-3--3-----|-3--3-----|
E|-----3--3-|-----3--3-|----------|----------|----------|----------|---3-----|-----3--3-|-----3--3-|

sing them out again
   B          q. e q     R
G|----------|----------|----------||
D|----------|-0--0-----|----------||
A|----------|------0---|-----0-2--||
E|----------|----------|---3------||


[Verse 2]
   B  Song sung blue
G|----------|----------|----------|-0--0-----|----------|-0--0-----|----------|----------|
D|----------|----------|-0--0-----|----------|-0--0-----|----------|----------|----------|
A|-3--3-----|-3--3-----|----------|----------|----------|----------|-3--3-----|-3--3-----|
E|-----3--3-|-----3--3-|-----3--3-|-----3--3-|----------|-----3--3-|-----3--3-|-----3--3-|

Funny thing ...      2/4 q    q 4/4                       q q q q    q q q q   B          R
G|----------|----------|-5--------|----------|----------|----------|-0-------|-----5--5-|----------||
D|----------|----------|----------|-3--3-----|-3-2-0----|-0-0-0-0--|---------|----------|----------||
A|-3--3-----|-3--3-----|-----3----|-----3--3-|-------3--|----------|-----0-2-|-3--3-----|-----0-2--||
E|-----3--3-|-----3--3-|----------|----------|----------|----------|---3-----|----------|---3------||


[Solo and Reprise Part of Verse 1]
   B  
G|----------|----------|----------|-0--0-----|----------|-0--0-----|----------|----------|
D|----------|----------|-0--0-----|----------|-0--0-----|----------|----------|----------|
A|-3--3-----|-3--3-----|----------|----------|----------|----------|-3--3-----|-3--3-----|
E|-----3--3-|-----3--3-|-----3--3-|-----3--3-|----------|-----3--3-|-----3--3-|-----3--3-|

Me and you ...       2/4 q    q 4/4                       q q q q    q q q q   B          R
G|----------|----------|-5--------|----------|----------|----------|-0-------|-----5--5-|----------||
D|----------|----------|----------|-3--3-----|-3-2-0----|-0-0-0-0--|---------|----------|----------||
A|-3--3-----|-3--3-----|-----3----|-----3--3-|-------3--|----------|-----0-2-|-3--3-----|-----0-2--||
E|-----3--3-|-----3--3-|----------|----------|----------|----------|---3-----|----------|---3------||


[Verse 2 Reprise]
   B  Song sung blue
G|----------|----------|----------|-0--0-----|----------|-0--0-----|----------|----------|
D|----------|----------|-0--0-----|----------|-0--0-----|----------|----------|----------|
A|-3--3-----|-3--3-----|----------|----------|----------|----------|-3--3-----|-3--3-----|
E|-----3--3-|-----3--3-|-----3--3-|-----3--3-|----------|-----3--3-|-----3--3-|-----3--3-|

Funny thing ...      2/4 q    q 4/4                       q q q q    q q q q   B          R
G|----------|----------|-5--------|----------|----------|----------|-0-------|-----5--5-|----------||
D|----------|----------|----------|-3--3-----|-3-2-0----|-0-0-0-0--|---------|----------|----------||
A|-3--3-----|-3--3-----|-----3----|-----3--3-|-------3--|----------|-----0-2-|-3--3-----|-----0-2--||
E|-----3--3-|-----3--3-|----------|----------|----------|----------|---3-----|----------|---3------||


[Outro to Fade]
   B  Song sung blue
G|----------|----------|----------|-0--0-----|----------|-0--0-----|----------|----------|
D|----------|----------|-0--0-----|----------|-0--0-----|----------|----------|----------|
A|-3--3-----|-3--3-----|----------|----------|----------|----------|-3--3-----|-3--3-----|
E|-----3--3-|-----3--3-|-----3--3-|-----3--3-|----------|-----3--3-|-----3--3-|-----3--3-|

Funny thing ...      2/4 q    q 4/4                       q q q q    q q q q   B          R
G|----------|----------|-5--------|----------|----------|----------|-0-------|-----5--5-|----------||
D|----------|----------|----------|-3--3-----|-3-2-0----|-0-0-0-0--|---------|----------|----------||
A|-3--3-----|-3--3-----|-----3----|-----3--3-|-------3--|----------|-----0-2-|-3--3-----|-----0-2--||
E|-----3--3-|-----3--3-|----------|----------|----------|----------|---3-----|----------|---3------||
Важно! Чтобы посмотреть аппликатуру нужного аккорда к песне “Neil Diamond – Song Sung Blue“, просто наведите мышку/кликните на сам аккорд.

Видео/Клип на песню “Neil Diamond – Song Sung Blue”:

Нажмите на звезду, чтобы оценить!

Средняя оценка 0 / 5. Количество оценок: 0

Оценок пока нет. Поставьте оценку первым.

Подписаться
Уведомление о
guest
0 Комментарий
inline-комментарии
Посмотреть все комментарии
ПОПУЛЯРНЫЕ АККОРДЫ:
Adblock
detector