Manowar – Sword In The Wind: аккорды для гитары

Текст песни "Manowar – Sword In The Wind" с аккордами для гитары

Вcтyплeниe:	Gm
[e-----0-------0-------0-------0-----
b------0-------0-------0-------0----
g----0--0----0--0----0--0----0--0---
d---2----2--2----2--2----2--2----2--
a--2-------2-------2-------2--------
e-0-------0-------0-------0---------]
I surrender my soul Odin hear my call
  Gm      Gm
[------0-------0-------2-------0-----
---------------------4---------0----
-----0--------------4--------0--0---
----2------2-------4--------2----2--
---2------3-------2--------2--------
--0-----------------------0---------]
One day I'll sit beside your throne In Valhalla's great hall
  Gm      Gm
[------0-------0-------2-------0-----
---------------------4---------0----
-----0--------------4--------0--0---
----2------2-------4--------2----2--
---2------3-------2--------2--------
--0-----------------------0---------]
Like so many before me I'll die with honor and pride
  Gm      Gm
[------0-------0-------2-------0-----
---------------------4---------0----
-----0--------------4--------0--0---
----2------2-------4--------2----2--
---2------3-------2--------2--------
--0-----------------------0---------]
The right of the warrior Forever to fight by your side
  Gm      Gm
[------0-------0-------2-------0-----
---------------------4---------0----
-----0--------------4--------0--0---
----2------2-------4--------2----2--
---2------3-------2--------2--------
--0-----------------------0---------]
Send a sign, raise the sail Wave a last goodbye
   Gm
[-------0-------3-------2-------0-----
------1-1-------------4-4-------0----
-----0---0----0--0---4---4----0--0---
----2-----2--0----0-4-----4--2----2--
---3--------2------2--------2--------
-----------3---------------0---------]
Destiny is calling Immortality be mine
   C         C
[-------0-------0-------2---2-----2----
------1-1-------------3-3---3---3-----
-----0---0----0--0---2---3-----2------
----2-----2--2----0-0---------0-------
---3--------3-------------------------
--------------------------------------]

Дaльшe тaким жe пepeбopoм:
Gm                 Gm
Call the witch to cast the runes Weave a magic spell
Gm              Gm
We who die in battle are born Not for heaven, not for hell
Gm
We are sons of Odin, The fire we burn inside
C(B)
Is the legacy of warrior kings, Who reign above in the sky

Пpипeв:		I will lead the charge
   C
[-------0----------2----
------1-1-------3--3---
-----0---0-----2-2--2--
----2-----2---0------0-
---3-------------------
-----------------------]
My sword into the wind
Gm
[----3-----2-------0-----
---------3---------0----
---0----2--------0--0---
--0----0--------2----2--
---------------2--------
3-------------0---------]
Sons of Odin fight
   C
[-------0----------2----
------1-1-------3--3---
-----0---0-----2-2--2--
----2-----2---0------0-
---3-------------------
-----------------------]
To die and live again
Gm
[----3-----2-------0-----
---------3---------0----
---0----2--------0--0---
--0----0--------2----2--
---------------2--------
3-------------0---------]
Viking ships cross the sea
   C
[-------0----------2----
------1-1-------3--3---
-----0---0-----2-2--2--
----2-----2---0------0-
---3-------------------
-----------------------]
In cold wind and rain
C      C       G
[----3-----2--------0-----
---------3--------2-0----
---0----2--------2---0---
--0----0--------2-----2--
---------------0---------
3------------------------]
Sail into the black of night
   G
[-------0--------0----
------1-1------1-1---
-----0---0----0---0--
----2-----2--2-----2-
---3--------3--------
---------------------]
Magic stars our guiding light
   C        B
[-------2--------2-------
-----3--3------4--------
----2-2--2----4---------
---0------0--4----------
------------2-----------
------------------------]
Gm          G
Today the blood of battle
         Gm
Upon my weapons will never dry
Gm               G
Many I'll send into the ground
Gm
Laughing as they die
C
We are sons of Odin
     Gm
The fire we burn inside
        G            G(G)
Is the legacy of warrior kings
    C               C)
Who reign above in the sky
C
I will lead the charge
    Gm
My sword into the wind
C
Sons of Odin fight
    Gm
To die and live again
C
Viking ships cross the sea
C                 G
In cold wind and rain
G
Sail into the black of night
C             C)
Magic stars our guiding light
C
Place my body on a ship
    Gm
And burn it on the sea
C
Let my spirit rise
  Gm
Valkiries carry me
C
Take me to Valhalla
            C              G
Where my brothers wait for me
 C
Fires burning to the sky
           B
My spirit will never die
Важно! Чтобы посмотреть аппликатуру нужного аккорда к песне “Manowar – Sword In The Wind“, просто наведите мышку/кликните на сам аккорд.

Видео/Клип на песню “Manowar – Sword In The Wind”:

Нажмите на звезду, чтобы оценить!

Средняя оценка 0 / 5. Количество оценок: 0

Оценок пока нет. Поставьте оценку первым.

Подписаться
Уведомление о
guest
0 Комментарий
inline-комментарии
Посмотреть все комментарии
ПОПУЛЯРНЫЕ АККОРДЫ:
Adblock
detector