Parkway Drive – Wishing Wells: аккорды для гитары

Текст песни "Parkway Drive – Wishing Wells" с аккордами для гитары

PARKWAY DRIVE 

WISHING WELLS

TABBED BY ANDHEREMBRACE

DROP B NOT D (CAUSE THERE'S A 'B' @4:53ISH)






C#|------------------------------------------------------------------------------------|
G#|----------3-----------3-------------3--4-----3---------------3-----------3----------|
E |-------5-----------5-------------5--------5-----5---------5-----------5-------------|
B |----5-----------5-------------5------------------------5-----------5----------------|
F#|-3--------------------------------------------------3-------------------------------|
B |-------------5------------6-------------------------------------5------------6------|


C#|------------------------------------------------------------------------------------|
G#|----------3-----------3-------------3--4-----3---------------3-----------3----------|
E |-------5-----------5-------------5--------5-----5---------5-----------5-------------|
B |----5-----------5-------------5------------------------5-----------5----------------|
F#|-3--------------------------------------------------3-------------------------------|
B |-------------5------------6-------------------------------------5------------6------|


C#|------------------------------------------------------------------------------------|
G#|----------3-----------3-------------3--4-----3---------------3-----------3----------|
E |-------5-----------5-------------5--------5-----5---------5-----------5-------------|
B |----5-----------5-------------5------------------------5-----------5----------------|
F#|-3--------------------------------------------------3-------------------------------|
B |-------------5------------6-------------------------------------5------------6------|


C#|------------------------------------------------------------------------------------|
G#|----------3-----------3-------------3--4-----3---------------3-----------3----------|
E |-------5-----------5-------------5--------5-----5---------5-----------5-------------|
B |----5-----------5-------------5------------------------5-----------5----------------|
F#|-3--------------------------------------------------3-------------------------------|
B |-------------5------------6-------------------------------------5------------6------|



C#|------------------------------------------------------------------------------------|
G#|----------3-----------3-------------3--4-----3---------------3-----------3----------|
E |-------5-----------5-------------5--------5-----5---------5-----------5-------------|
B |----5-----------5-------------5------------------------5-----------5----------------|
F#|-3--------------------------------------------------3------------------------6------|
B |-------------5------------6-------------------------------------5------------6------|






1:02


1
C#|--------------------------------------------------------------------------------------------------|
G#|------13---------13---------15----16--15--13-----------13---------13---------15----16--15--13-----|
E |-12------12-13------13-15------15-------------15--12------12-13------13-15------15-------------15-|
B |--------------------------------------------------------------------------------------------------|
F#|--------------------------------------------------------------------------------------------------|
B |--------------------------------------------------------------------------------------------------|

2
C#|--------------------------------------------------------------------------------------------------|
G#|--------------------------------------------------------------------------------------------------|
E |--------------------------------------------------------------------------------------------------|
B |-5----------------------6--------------------------5----------------------6-----------------------|
F#|-5-------5--5-5--5-5----6--------------------------5-------5--5-5--5-5----6-----------------------|
B |-5-------5--5-5--5-5----6--------------------------5-------5--5-5--5-5----6-----------------------|
            *  * *  * *                                       *  * *  * *



1
C#|------------------------------------------------------------------------------------|
G#|------13---------13---------15----16--15--13-----------13---------------------------|
E |-12------12-13------13-15------15-------------15--12------12-13---10--12-13---------|
B |------------------------------------------------------------------------------------|
F#|------------------------------------------------------------------------------------|
B |------------------------------------------------------------------------------------|

2
C#|------------------------------------------------------------------------------------|
G#|------------------------------------------------------------------------------------|
E |------------------------------------------------------------------------------------|
B |-5----------------------6--------------------------5-----------------3--5--6--------|
F#|-5-------5--5-5--5-5----6-------6--6-6--6-6--6-----5-------5--5-5--5-3--5--6--------|
B |-5-------5--5-5--5-5----6-------6--6-6--6-6--6-----5-------5--5-5--5-3--5--6--------|
            *  * *  * *            *  * *  * *  *             *  * *  * 






1 WITH WAH AND OCTAVER SET TO +1 MIX THRU OUT
C#|---------------------------------------------------------|
G#|-///----------------///------------///-------------------|
E |--7------------------7--------------7--------------------|
B |--X------------------X--------------X--------------------|
F#|--5------------------5--------------5--------------------|
B |---------------------------------------------------------|

2
C#|---------------------------------------------------------|
G#|---------------------------------------------------------|
E |---------------------------------------------------------|
B |---------------------------------------------------------|
F#|---------------------------------------------------------|
B |-5-5-5--3-3-3--5-5-5--3-3-3--5-5-5--3-3-3--5-5-5--6-6-6--|
    * * *  * * *  * * *  * * *  * * *  * * *  * * *  * * * 


1
C#|-----------------------------------------------------|
G#|-///-------------------///-----------///-------------|
E |--8---------------------8-------------10-------------|
B |--X---------------------X--------------X-------------|
F#|--6---------------------6--------------8-------------|
B |-----------------------------------------------------|

2
C#|-----------------------------------------------------|
G#|-----------------------------------------------------|
E |-----------------------------------------------------|
B |----------------------------------------------3-3-6--|
F#|-----------------------------------------------------|
B |-6-6-6--5--6-6-6--5-5-5--6-6-6--5-5-5--6-6-6---------|
    * * *  *  * * *  * * *  * * *  * * *  * * *  * * *



1
C#|---------------------------------------------------------|
G#|-///----------------///------------///-------------------|
E |--7------------------7--------------7--------------------|
B |--X------------------X--------------X--------------------|
F#|--5------------------5--------------5--------------------|
B |---------------------------------------------------------|

2
C#|---------------------------------------------------------|
G#|---------------------------------------------------------|
E |---------------------------------------------------------|
B |---------------------------------------------------------|
F#|---------------------------------------------------------|
B |-5-5-5--3-3-3--5-5-5--3-3-3--5-5-5--3-3-3--5-5-5--6-6-6--|
    * * *  * * *  * * *  * * *  * * *  * * *  * * *  * * * 


1
C#|-----------------------------------------------------------------------|
G#|-///-------------------///-----------///-------------------------------|
E |--8---------------------8-------------10------------12--12--12--12-----|
B |--X---------------------X--------------X-------------X---X---X---X-----|
F#|--6---------------------6--------------8------------10--10--10--10-----|
B |-----------------------------------------------------------------------|

2
C#|-----------------------------------------------------------------------|
G#|-----------------------------------------------------------------------|
E |-----------------------------------------------------------------------|
B |---------------------------------------3-3-3--5-6----5---5---5---5-----|
F#|-----------------------------------------------------5---5---5---5-----|
B |-6-6-6--5--6-6-6--5-5-5--6-6-6--5-5-5----------------5---5---5---5-----|
    * * *  *  * * *  * * *  * * *  * * *  * * *  * * 






1:53




C#|----------------------------------------------------------------------------------------------------|
G#|----------------------------------------------------------------------------------------------------|
E |----------------------------------------------------------------------------------------------------|
B |----------------------------------------------------------------------------------------------------|
F#|----------------------------------------------------------------------------------------------------|
B |-6-6-6--5--5--5--5--6-6-6--5--5--5--5--5--5--5--5--6-6-6--5--5--5--5--6-6-6--5--5--5--5--5--5--5--5-|
    * * *  *  *  *  *  * * *  *  *  *  *  *  *  *  *  * * *  *  *  *  *  * * *  *  *  *  *  *  *  *  *


C#|----------------------------------------------------------------------------------------------------|
G#|----------------------------------------------------------------------------------------------------|
E |----------------------------------------------------------------------------------------------------|
B |----------------------------------------------------------------------------------------------------|
F#|----------------------------------------------------------------------------------------------------|
B |-6-6-6--5--5--5--5--6-6-6--5--5--5--5--5--5--5--5--6-6-6--5--5--5--5--6-6-6--3--3--3--3--3--3--3--3-|
    * * *  *  *  *  *  * * *  *  *  *  *  *  *  *  *  * * *  *  *  *  *  * * *  *  *  *  *  *  *  *  *






2:04

C#|-------------------------------------------------------------------|
G#|-------------------------------------------------------------------|
E |--------------------------3-------------------------------3--------|
B |----5-6-3-5---3-5-6-3-5-6---5-6-3---5-6-3-5---3-5-6-3-5-6---5-6-3--|
F#|-------------------------------------------------------------------|
B |-5----------5---------------------5---------5----------------------|
    *  * * * * * * * * * * * * * * * * * * * * * * * * * * * * * * * 

C#|-------------------------------------------------------------------|
G#|-------------------------------------------------------------------|
E |--------------------------3-------------------------------3--------|
B |----5-6-3-5---3-5-6-3-5-6---5-6-3---5-6-3-5---3-5-6-3-5-6---5-6-3--|
F#|-------------------------------------------------------------------|
B |-5----------5---------------------5---------5----------------------|
    *  * * * * * * * * * * * * * * * * * * * * * * * * * * * * * * * 


1
C#|-------------------------------------------------------------------|
G#|-------------------------------------------------------------------|
E |--------------------------3-------------------------------3--------|
B |----5-6-3-5---3-5-6-3-5-6---5-6-3---5-6-3-5---3-5-6-3-5-6---5-6-3--|
F#|-------------------------------------------------------------------|
B |-5----------5---------------------5---------5----------------------|
    *  * * * * * * * * * * * * * * * * * * * * * * * * * * * * * * * 
2
C#|------------------------------------------------------------------------|
G#|------------------------------------------------------------------------|
E |-7-----------------------------------8----------------------------------|
B |-5-----------------------------------6----------------------------------|
F#|-5-----------------------------------6----------------------------------|
B |-5-----------------------------------6----------------------------------|




1
C#|-------------------------------------------------------------------|
G#|-------------------------------------------------------------------|
E |--------------------------3-----------------------5----------------|
B |----5-6-3-5---3-5-6-3-5-6---5-6-3---5-6-3-5---6-8---8-6-5-6-5------|
F#|--------------------------------------------------------------8-6--|
B |-5----------5---------------------5---------5----------------------|
    *  * * * * * * * * * * * * * * * * * * * * * * * * * * * * * * * 

2
C#|-----------------------------------------------------------------------|
G#|-----------------------------------------------------------------------|
E |-7-----------------------------------5---------------------------------|
B |-5-----------------------------------3------------3-5-6-5-3---3--------|
F#|-5-----------------------------------3----------------------6---6-5-3--|
B |-5-----------------------------------3----------5----------------------|
                                                   * * * * * * * * * * * 





2;26



1
C#|-15--------------------------------------------15---------------------------------------------|
G#|-----15-------------------------)----(-------------15-----------------------------------------|
E |---------15--14-14~------------------------------------15--14-14~---12--14--15--14------------|
B |----------------------------------------------------------------------------------------------|
F#|----------------------------------------------------------------------------------------------|
B |----------------------------------------------------------------------------------------------|

2
C#|----------------------------------------------------------------------------------------------|
G#|----------------------------------------------------------------------------------------------|
E |----------------------------------------------------------------------------------------------|
B |-5--------------------3------------5---3--3-----5--------------------3------------5---3--3----|
F#|-5---5-5-5-3----------3---5-3-5-3--5---3--3-----5---5-5-5-3----------3---5-3-5-3--5---3--3----|
B |-5---5-5-5-3-/8-7-7~--3---5-3-5-3--5---3--3-----5---5-5-5-3-/8-7-7~--3---5-3-5-3--5---3--3----|
        * * * *              * * * *                   * * * *              * * * *



1
C#|-15--------------------------------------------15---------------------------------------------|
G#|-----15-------------------------)----(-------------15-----------------------------------------|
E |---------15--14-14~------------------------------------15--14-14~-----12--14--15--14----------|
B |----------------------------------------------------------------------------------------------|
F#|----------------------------------------------------------------------------------------------|
B |----------------------------------------------------------------------------------------------|

2
C#|----------------------------------------------------------------------------------------------|
G#|----------------------------------------------------------------------------------------------|
E |----------------------------------------------------------------------------------------------|
B |-5--------------------3------------5---3--3-----5--------------------3------------5---3-------|
F#|-5---5-5-5-3----------3---5-3-5-3--5---3--3-----5---5-5-5-3----------3---5-3-5-3--5---3-------|
B |-5---5-5-5-3-/8-7-7~--3---5-3-5-3--5---3--3-----5---5-5-5-3-/8-7-7~--3---5-3-5-3--5---3-------|
        * * * *              * * * *                   * * * *              * * * *





2;48


1
C#|---------------------------------------------------------|
G#|-///----------------///------------///-------------------|
E |--7------------------7--------------7--------------------|
B |--X------------------X--------------X--------------------|
F#|--5------------------5--------------5--------------------|
B |---------------------------------------------------------|

2
C#|---------------------------------------------------------|
G#|---------------------------------------------------------|
E |---------------------------------------------------------|
B |---------------------------------------------------------|
F#|---------------------------------------------------------|
B |-5-5-5--3-3-3--5-5-5--3-3-3--5-5-5--3-3-3--5-5-5--6-6-6--|
    * * *  * * *  * * *  * * *  * * *  * * *  * * *  * * * 




1
C#|-----------------------------------------------------|
G#|-///-------------------///-----------///-------------|
E |--8---------------------8-------------10-------------|
B |--X---------------------X--------------X-------------|
F#|--6---------------------6--------------8-------------|
B |-----------------------------------------------------|

2
C#|-----------------------------------------------------|
G#|-----------------------------------------------------|
E |-----------------------------------------------------|
B |----------------------------------------------3-3-6--|
F#|-----------------------------------------------------|
B |-6-6-6--5--6-6-6--5-5-5--6-6-6--5-5-5--6-6-6---------|
    * * *  *  * * *  * * *  * * *  * * *  * * *  * * *






3:00


C#|----------------------------------------------------------------------------------------------------|
G#|----------------------------------------------------------------------------------------------------|
E |----------------------------------------------------------------------------------------------------|
B |----------------------------------------------------------------------------------------------------|
F#|----------------------------------------------------------------------------------------------------|
B |-6-6-6--5--5--5--5--6-6-6--5--5--5--5--5--5--5--5--6-6-6--5--5--5--5--6-6-6--5--5--5--5--5--5--5--5-|
    * * *  *  *  *  *  * * *  *  *  *  *  *  *  *  *  * * *  *  *  *  *  * * *  *  *  *  *  *  *  *  *


C#|----------------------------------------------------------------------------------------------------|
G#|----------------------------------------------------------------------------------------------------|
E |----------------------------------------------------------------------------------------------------|
B |----------------------------------------------------------------------------------------------------|
F#|----------------------------------------------------------------------------------------------------|
B |-6-6-6--5--5--5--5--6-6-6--5--5--5--5--5--5--5--5--6-6-6--5--5--5--5--6-6-6--3--3--3--3--3--3--3--3-|
    * * *  *  *  *  *  * * *  *  *  *  *  *  *  *  *  * * *  *  *  *  *  * * *  *  *  *  *  *  *  *  *



3:11



C#|-------------------------------------------------------------------|
G#|-------------------------------------------------------------------|
E |--------------------------3-------------------------------3--------|
B |----5-6-3-5---3-5-6-3-5-6---5-6-3---5-6-3-5---3-5-6-3-5-6---5-6-3--|
F#|-------------------------------------------------------------------|
B |-5----------5---------------------5---------5----------------------|
    *  * * * * * * * * * * * * * * * * * * * * * * * * * * * * * * * 

C#|-------------------------------------------------------------------|
G#|-------------------------------------------------------------------|
E |--------------------------3-------------------------------3--------|
B |----5-6-3-5---3-5-6-3-5-6---5-6-3---5-6-3-5---3-5-6-3-5-6---5-6-3--|
F#|-------------------------------------------------------------------|
B |-5----------5---------------------5---------5----------------------|
    *  * * * * * * * * * * * * * * * * * * * * * * * * * * * * * * * 



3;21


1
C#|-------------------------------------------------------------------|
G#|-------------------------------------------------------------------|
E |--------------------------3-------------------------------3--------|
B |----5-6-3-5---3-5-6-3-5-6---5-6-3---5-6-3-5---3-5-6-3-5-6---5-6-3--|
F#|-------------------------------------------------------------------|
B |-5----------5---------------------5---------5----------------------|
    *  * * * * * * * * * * * * * * * * * * * * * * * * * * * * * * * 
2
C#|-------------------------------------------------------------------|
G#|-------------------------------------------------------------------|
E |-7-----------------------------------8-----------------------------|
B |-5-----------------------------------6-----------------------------|
F#|-5-----------------------------------6-----------------------------|
B |-5-----------------------------------6-----------------------------|



1
C#|------------------------------------------------------|
G#|------------------------------------------------------|
E |--------------------------3---------------------------|
B |----5-6-3-5---3-5-6-3-5-6---5-6-3---5-6-3-5-----------|
F#|----------------------------------------------3-3-----|
B |-5----------5---------------------5---------5-3-3-----|
    *  * * * * * * * * * * * * * * * * * * * * * * * 
2
C#|------------------------------------------------------|
G#|------------------------------------------------------|
E |-7-----------------------------------5----------------|
B |-5-----------------------------------3----------------|
F#|-5-----------------------------------3--------3-3-----|
B |-5-----------------------------------3--------3-3-----|
                                                 * *




3;32


1
C#|-15--------------------------------------------15---------------------------------------------|
G#|-----15-------------------------)----(-------------15-----------------------------------------|
E |---------15--14-14~-------------------------------------15--14-14~--12--14--15--14------------|
B |----------------------------------------------------------------------------------------------|
F#|----------------------------------------------------------------------------------------------|
B |----------------------------------------------------------------------------------------------|

2
C#|----------------------------------------------------------------------------------------------|
G#|----------------------------------------------------------------------------------------------|
E |----------------------------------------------------------------------------------------------|
B |-5--------------------3------------5---3--3-----5--------------------3------------5---3--3----|
F#|-5---5-5-5-3----------3---5-3-5-3--5---3--3-----5---5-5-5-3----------3---5-3-5-3--5---3--3----|
B |-5---5-5-5-3-/8-7-7~--3---5-3-5-3--5---3--3-----5---5-5-5-3-/8-7-7~--3---5-3-5-3--5---3--3----|
        * * * *              * * * *                   * * * *              * * * *



1
C#|-15--------------------------------------------15---------------------------------------------|
G#|-----15-------------------------)----(-------------15-----------------------------------------|
E |---------15--14-14~------------------------------------15--14-14~-----12--14--15--14----------|
B |----------------------------------------------------------------------------------------------|
F#|----------------------------------------------------------------------------------------------|
B |----------------------------------------------------------------------------------------------|

2
C#|----------------------------------------------------------------------------------------------|
G#|----------------------------------------------------------------------------------------------|
E |----------------------------------------------------------------------------------------------|
B |-5--------------------3------------5---3--3-----5--------------------3------------5---3-------|
F#|-5---5-5-5-3----------3---5-3-5-3--5---3--3-----5---5-5-5-3----------3---5-3-5-3--5---3-------|
B |-5---5-5-5-3-/8-7-7~--3---5-3-5-3--5---3--3-----5---5-5-5-3-/8-7-7~--3---5-3-5-3--5---3-------|
        * * * *              * * * *                   * * * *              * * * *



C#|----------------------------------------------------------------------------|
G#|----------------------------------------------------------------------------|
E |----------------------------------------------------------------------------|
B |-5--------------------------------------------------------------------------|
F#|-5--------------------------------------------------------------------------|
B |-5--------------------------------------------------------------------------|





4:06


1
C#|-15------------------18------------------15-----------------------------------)(--|
G#|------15---16---15--------15---16---18--------15---16---15---13---15---16---15----|
E |----------------------------------------------------------------------------------|
B |----------------------------------------------------------------------------------|
F#|----------------------------------------------------------------------------------|
B |----------------------------------------------------------------------------------|

2
C#|----------------------------------------------------------------------------------|
G#|----------------------------------------------------------------------------------|
E |----------------------------------------------------------------------------------|
B |-5---------------3--6---------------------5----------------3--6-------------------|
F#|-5---------------3--6---------------------5----------------3--6-------------------|
B |-5---------------3--6---------------------5----------------3--6-------------------|




4:18

1
C#|---------------------------------------------------------|
G#|-///-----------------///----------------///--------------|
E |-12-------------------12-----------------12--------------|
B |--X--------------------X------------------X--------------|
F#|-10-------------------10-----------------10--------------|
B |---------------------------------------------------------|

2
C#|---------------------------------------------------------|
G#|---------------------------------------------------------|
E |---------------------------------------------------------|
B |---------------------------------------------------------|
F#|---------------------------------------------------------|
B |-5-5-5--5-5-5--5-5-5--5-5-5--5-5-5--5-5-5--5-5-5--3-3-3--|
    * * *  * * *  * * *  * * *  * * *  * * *  * * *  * * * 


1
C#|-------------------------------------------------------|
G#|-///-----------------///----------------///------------|
E |-13-------------------13-----------------13------------|
B |--X--------------------X------------------X------------|
F#|-11-------------------11-----------------11------------|
B |-------------------------------------------------------|

2
C#|-------------------------------------------------------|
G#|-------------------------------------------------------|
E |-------------------------------------------------------|
B |-------------------------------------------------------|
F#|-------------------------------------------------------|
B |-6-6-6--6-6-6--6-6-6--6-6-6--6-6-6--6-6-6--3--5--6--3--|
    * * *  * * *  * * *  * * *  * * *  * * *  *  *  *  *



1
C#|---------------------------------------------------------|
G#|-///-----------------///----------------///--------------|
E |-12-------------------12-----------------12--------------|
B |--X--------------------X------------------X--------------|
F#|-10-------------------10-----------------10--------------|
B |---------------------------------------------------------|

2
C#|---------------------------------------------------------|
G#|---------------------------------------------------------|
E |---------------------------------------------------------|
B |---------------------------------------------------------|
F#|---------------------------------------------------------|
B |-5-5-5--5-5-5--5-5-5--5-5-5--5-5-5--5-5-5--5-5-5--3-3-3--|
    * * *  * * *  * * *  * * *  * * *  * * *  * * *  * * * 


1
C#|-------------------------------------------------------|
G#|-///-----------------///----------------///------------|
E |-13-------------------13-----------------15------------|
B |--X--------------------X------------------X------------|
F#|-11-------------------11-----------------13------------|
B |-------------------------------------------------------|

2
C#|-------------------------------------------------------|
G#|-------------------------------------------------------|
E |-------------------------------------------------------|
B |-------------------------------------------------------|
F#|-------------------------------------------------------|
B |-6-6-6--6-6-6--6-6-6--6-6-6--6--5--3--5--6--5--3--6----|
    * * *  * * *  * * *  * * *  *  *  *  *  *  *  *  *




4:28



C#|----------------------------------------------------------------|
G#|----------------------------------------------------------------|
E |----------------------------------------------------------------|
B |--5---3---------------------------5---3-------------------------|
F#|--5---3---------------------------5---3----)(---------)(--------|
B |--5---3---6--5--3--5--6--5--3--6--5---3---5----3--5--8---5--3---|
             *  *  *  *  *  *  *  *


C#|----------------------------------------------------------------|
G#|----------------------------------------------------------------|
E |----------------------------------------------------------------|
B |--5---3---------------------------5---3-------------------------|
F#|--5---3---------------------------5---3-------------------------|
B |--5---3---6--5--3--5--6--5--3--6--5---3----5--5--3--5--6--5-----|
             *  *  *  *  *  *  *  *           *  *  *  *  *  *



4:38



C#|----------------------------------------------------------------------------------------|
G#|----------------------------------------------------------------------------------------|
E |----------------------------------------------------------------------------------------|
B |----------------------------------------------------------------------------------------|
F#|------)(---------------)(----------X-X--X-X------)(---------------)(-----------)(-------|
B |--5--3----6--5~~---5--3----6--5~~--X-X--X-X--5--3----6--5~~---5--3---5--3--5--8---5--3--|



C#|----------------------------------------------------------------------------------------|
G#|----------------------------------------------------------------------------------------|
E |----------------------------------------------------------------------------------------|
B |----------------------------------------------------------------------------------------|
F#|------)(---------------)(----------X-X--X-X------)(---------------)(-----------)(-------|
B |--5--3----6--5~~---5--3----6--5~~--X-X--X-X--5--3----6--5~~---5--3---5--3--5--8---5--3--|





4:50

1
C#|-------------------------------------------------------------------------|
G#|-------------------------------------------------------------------------|
E |-12-10--13-12--12-12-10--13-12--12-12-10--13-12-----12--10-12-13-10-12---|
B |--X--X---X--X---X--X--X---X--X---X--X--X---X--X--------------------------|
F#|-10--8--11-10--10-10--8--11-10--10-10--8--11-10--10----------------------|
B |-------------------------------------------------------------------------|

2
C#|-------------------------------------------------------------------------|
G#|-------------------------------------------------------------------------|
E |-------------------------------------------------------------------------|
B |--5---3---6--5---5--5---3---6--5---5--5---3---6--5----------------P------|
F#|--5---3---6--5---5--5---3---6--5---5--5---3---6--5----------------H------|
B |--5---3---6--5---5--5---3---6--5---5--5---3---6--5--3-5-3-0-3-6-3-5~~~---|
                                                       * * * * * * * 




1
C#|-----------------------------------------------------------------------------|
G#|-----------------------------------------------------------------------------|
E |-12-10--13-12--12-12-10--13-12--12-12-10--13-12------------------------------|
B |--X--X---X--X---X--X--X---X--X---X--X--X---X--X------------------------------|
F#|-10--8--11-10--10-10--8--11-10--10-10--8--11-10--10--10--10--10--10--10--10--|
B |-----------------------------------------------------------------------------|
                                                     *   *   *   *   *   *   *
2
C#|-------------------------------------------------------------------------|
G#|-------------------------------------------------------------------------|
E |-------------------------------------------------------------------------|
B |--5---3---6--5---5--5---3---6--5---5--5---3---6--5-----------------------|
F#|--5---3---6--5---5--5---3---6--5---5--5---3---6--5--5--5--5--5--5--5--5--|
B |--5---3---6--5---5--5---3---6--5---5--5---3---6--5--5--5--5--5--5--5--5--|
                                                       *  *  *  *  *  *  *




Tab helpful? buy me a coffee 🙂  https://www.paypal.me/andherembrace


****************************************************
*=palm mute
ph=pinch harmonics
/=slide
 _
/ , ^=HAMMER ON/PULLOFF
~=VIBRATO
),(,|= BEND,UNBEND,BENT

****************************************************
Важно! Чтобы посмотреть аппликатуру нужного аккорда к песне “Parkway Drive – Wishing Wells“, просто наведите мышку/кликните на сам аккорд.

Видео/Клип на песню “Parkway Drive – Wishing Wells”:

Нажмите на звезду, чтобы оценить!

Средняя оценка 0 / 5. Количество оценок: 0

Оценок пока нет. Поставьте оценку первым.

Подписаться
Уведомление о
guest
0 Комментарий
inline-комментарии
Посмотреть все комментарии
ПОПУЛЯРНЫЕ АККОРДЫ: