Low Roar – Just A Habit: аккорды для гитары

Текст песни "Low Roar – Just A Habit" с аккордами для гитары

tabbed by necriononguitar
requests via message

No Capo
Standard Tuning

Fingerpick the chords, he does so, too.
Don't mind the chord-naming, just play the tab and use the chords to sing along.


-Verse-
    F#m                    G#m/E   A                                Bm      A       G#m/E
E-----x-------x-------x-------x-------x----(0)x-------x--------x-------x-------x-------x-------x--------x----|
B-2---x--2----x--2----x--5----x--2----x--0----x--2----x---0----x--3----x--2----x--5----x--5----x--5-----x--5-|
G-2---x--2----x--2----x--4----x--2----x--2----x--2----x---2----x--2----x--2----x--4----x--4----x--4-----x--4-|
D-----x-------x-------x-------x-------x-------x-------x--------x-------x-------x-------x-------x--------x----|
A-----x-------x-------x-------x--0----x--0----x--0----x---0----x--2----x--0----x-------x-------x--------x----|
E-2---x--2----x--2----x--4----x-------x-------x-------x--------x-------x-------x--4----x--4----x--4-----x--4-|


-Chorus-
    F#m/D           A                E
E--------x---------(0)---x----------(0)---x--------------|
B---3----x----------2----x-----------0----x--------------|
G---2----x----------2----x-----------1----x--------------|
D--(0)---x---x4----------x---x2-----------x----x2--------|    x2
A--------x----------0----x----------------x--------------|
E---2----x---------------x-----------0----x--------------|

    Bm               A                 G
E--------x----------------x-----------------x------------|
B---3----x-----------2----x------------0----x------------|
G---2----x-----------2----x------------0----x------------|
D--------x---x2-----------x---x2------------x---x4-------|
A---2----x-----------0----x-----------------x------------|
E--------x----------------x------------3----x------------|

    F#m/D           A                E
E--------x---------(0)---x----------(0)---x--------------|
B---3----x----------2----x-----------0----x--------------|
G---2----x----------2----x-----------1----x--------------|
D--(0)---x---x4----------x---x2-----------x----x2--------|
A--------x----------0----x----------------x--------------|
E---2----x---------------x-----------0----x--------------|


-Outro-
    Bm              C#m            G#m/E
E--------x---------------x--------------x-------------|
B---3----x----------5----x---------5----x-------------|
G---2----x----------6----x---------4----x-------------|
D--------x--x2-----------x--x2----------x--x4---------|   x3
A---2----x----------4----x--------------x-------------|
E--------x---------------x---------4----x-------------|

    F#m/D           A                E                  F#m
E--------x---------(0)---x----------(0)---x-----------------|
B---3----x----------2----x-----------0----x-------------2---|
G---2----x----------2----x-----------1----x-------------2---|
D--(0)---x---x4----------x---x2-----------x----x2-----------|
A--------x----------0----x----------------x-----------------|
E---2----x---------------x-----------0----x-------------2---|


F#m           G#m      A
    Could you point me towards
  Bm    A    G#m
A quiet gathering
F#m         G#m      A
    Full of bugs and holes
      Bm       A       G#m
Where any word said to you
        Bm        A       G#m
Holds a liquored, puzzled truth


            F#m/D     A     E
It's just a habit
            F#m/D     A     E
It's just a habit
            Bm      A     G
It's just a ha...      ...bit

F#m/D    A     E


F#m      G#m    A
    If I slur a bit
     Bm           A      G#m
It's just because I'm confused
F#m             G#m     A
    Don't think much of it
   Bm     A       G#m
My days belong to you
          Bm       A          G#m
If you're kind, my nights can too


            F#m/D     A     E
It's just a habit
            F#m/D     A     E
It's just a habit
            Bm      A     G
It's just a ha...      ...bit

F#m/D    A     E


Bm     C#m     G#m
Bm     C#m     G#m
Bm     C#m     G#m
F#m/D  A       E


F#m (let ring)
Важно! Чтобы посмотреть аппликатуру нужного аккорда к песне “Low Roar – Just A Habit“, просто наведите мышку/кликните на сам аккорд.

Видео/Клип на песню “Low Roar – Just A Habit”:

Нажмите на звезду, чтобы оценить!

Средняя оценка 0 / 5. Количество оценок: 0

Оценок пока нет. Поставьте оценку первым.

Подписаться
Уведомление о
guest
0 Комментарий
inline-комментарии
Посмотреть все комментарии
ПОПУЛЯРНЫЕ АККОРДЫ:
Adblock
detector