BACK-ON – Strike Back: аккорды для гитары

Текст песни "BACK-ON – Strike Back" с аккордами для гитары

[Intro] - Rest during vocals w/ guitar accompaniment open, then join
G|------------------------------------|
D|------------------------------------|
A|------------------------------------| x 4
E|-1-1-1-------4-4--------------------|
B|-------2-2-2-----4-4-4--2-2-2--4-4--|


[Verse 1] - Rest during first half of verse, join after first half
G|-----------------|-----------------|-----------------|-----------------|
D|-----------------|-----------------|-----------------|-----------------|
A|-----------------|-----------------|-----------------|-----------------|
E|-1-1-1-1-1-1-1-1-|-1-1-1-1-1-1-1-1-|-----------------|-----------------|
B|-----------------|-----------------|-2-2-2-2-2-2-2-2-|-2-2-2-2-2-2-2-2-|

G|-----------------|-----------------|-----------------|-----------------|
D|-----------------|-----------------|-----------------|-----------------|
A|-----------------|-----------------|-----------------|-----------------|
E|-4-4-4-4-4-4-4-4-|-4-4-4-4-4-4-4-4-|-3------3-3---3--|-2------2-2---2--|
B|-----------------|-----------------|-----------------|-----------------|

[Pre-Chorus]
G|-----------------|---------------------|
D|-----------------|---------------------|
A|-----------------|-4/8--10-11h-10p-8p-|
E|-----------------|---------------------|
B|--2-2--4-4--6-6--|---------------------|

G|-----------------|---------------------|
D|-----------------|-----------8/10--86-|
A|-----------------|--6-8h-6p------------|
E|-----------------|---------------------|
B|--2-2--4-4--6-6--|---------------------|

G|-----------------|---------------------|
D|-----------------|---------------------|
A|-----------------|---------------------|
E|-----------------|---------------------|
B|--2-2--4-4--6-6--|--7-72--2-2-2-2-2-2-|

[Chorus] x 2
G|------------------|-----------------------|---------------|------------------------|
D|------------------|-----------------------|---------------|------------------------|
A|------------------|-15--15-15-15----------|---------------|-16--16-16-16-15-15-15-|
E|-1-1-1-1/13-13-13-|-------------15-15-15-|-9--9-9-9-9-9/-|------------------------|
B|------------------|-----------------------|---------------|------------------------|

G|----------------|-----------------|-----------------|-----------------|
D|----------------|-----------------|-----------------|-----------------|
A|----------------|---------3-3-3-3-|-----------------|-----------------|
E|-4--4-4-4-4-4-4-|-6-6-6-6---------|-----------------|-0-0-0-0-0-0-0-0-|
B|----------------|-----------------|-4-4-4-4-4-4-4-4-|-----------------|

[Post-Chorus]
G|------------------------------------|
D|------------------------------------|
A|------------------------------------| x 2
E|-1-1-1-------4-4--------------------|
B|-------2-2-2-----4-4-4--2-2-2--4-4--|

[Verse 2] - Silent during first half while guitar plays behind vocals
G|-----------------|-----------------|-----------------|-----------------|
D|-----------------|-----------------|-----------------|-----------------|
A|-----------------|-----------------|-----------------|-----------------|
E|-4-4-4-4-4-4-4-4-|-4-4-4-4-4-4-4-4-|-3-3-3-3-3-3-3-3-|-2-2-2-2-2-2-2-2-|
B|-----------------|-----------------|-----------------|-----------------|

G|-----------------|-----------------|-----------------|-----------------|
D|-----------------|-----------------|-----------------|-----------------|
A|-----------------|-----------------|-----------------|-----------------|
E|-1-1-1-1-1-1-1-1-|-1-1-1-1-1-1-1-1-|-----------------|-----------------|
B|-----------------|-----------------|-2-2-2-2-2-2-2-2-|-2-2-2-2-2-2-2-2-|

G|-----------------|-----------------|-----------------|-----------------|
D|-----------------|-----------------|-----------------|-----------------|
A|-----------------|-----------------|-----------------|-----------------|
E|-4-4-4-4-4-4-4-4-|-4-4-4-4-4-4-4-4-|-3------3-3---3--|-2------2-2---2--|
B|-----------------|-----------------|-----------------|-----------------|

[Pre-Chorus 2]
G|-----------------|---------------------|
D|-----------------|---------------------|
A|-----------------|---------------------|
E|-----------------|---------------------|
B|--2-2--4-4--6-6--|---------------------|

G|-----------------|---------------------|
D|-----------------|---------------------|
A|-----------------|---------------------|
E|-----------------|---------------------|
B|--2-2--4-4--6-6--|---------------------|

G|-----------------|---------------------|
D|-----------------|---------------------|
A|-----------------|---------------------|
E|-----------------|---------------------|
B|--2-2--4-4--6-6--|--7-72--2-2-2-2-2-2-|

[Chorus] x 2
G|------------------|-----------------------|---------------|------------------------|
D|------------------|-----------------------|---------------|------------------------|
A|------------------|-15--15-15-15----------|---------------|-16--16-16-16-15-15-15-|
E|-1-1-1-1/13-13-13-|-------------15-15-15-|-9--9-9-9-9-9/-|------------------------|
B|------------------|-----------------------|---------------|------------------------|

G|----------------|-----------------|-----------------|-----------------|
D|----------------|-----------------|-----------------|-----------------|
A|----------------|---------3-3-3-3-|-----------------|-----------------|
E|-4--4-4-4-4-4-4-|-6-6-6-6---------|-----------------|-0-0-0-0-0-0-0-0-|
B|----------------|-----------------|-4-4-4-4-4-4-4-4-|-----------------|

[Interlude] - Rest for first few measures then join
G|------------------------------------|
D|------------------------------------|
A|------------------------------------| x 4
E|-1-1-1-------4-4--------------------|
B|-------2-2-2-----4-4-4--2-2-2--4-4--|

[Chorus] x 4
G|------------------|-----------------------|---------------|------------------------|
D|------------------|-----------------------|---------------|------------------------|
A|------------------|-15--15-15-15----------|---------------|-16--16-16-16-15-15-15-|
E|-1-1-1-1/13-13-13-|-------------15-15-15-|-9--9-9-9-9-9/-|------------------------|
B|------------------|-----------------------|---------------|------------------------|

G|----------------|-----------------|-----------------|-----------------|
D|----------------|-----------------|-----------------|-----------------|
A|----------------|---------3-3-3-3-|-----------------|-----------------|
E|-4--4-4-4-4-4-4-|-6-6-6-6---------|-----------------|-0-0-0-0-0-0-0-0-|
B|----------------|-----------------|-4-4-4-4-4-4-4-4-|-----------------|

[Outro]
G|------------------------------------|
D|------------------------------------|
A|------------------------------------| x 2
E|-1-1-1-------4-4--------------------|
B|-------2-2-2-----4-4-4--2-2-2--4-4--|



************************************

| h   Hammer-on
| p   Pull-off
| /   Slide up
|    Slide down

************************************
Важно! Чтобы посмотреть аппликатуру нужного аккорда к песне “BACK-ON – Strike Back“, просто наведите мышку/кликните на сам аккорд.

Видео/Клип на песню “BACK-ON – Strike Back”:

Нажмите на звезду, чтобы оценить!

Средняя оценка 0 / 5. Количество оценок: 0

Оценок пока нет. Поставьте оценку первым.

Подписаться
Уведомление о
guest
0 Комментарий
inline-комментарии
Посмотреть все комментарии
ПОПУЛЯРНЫЕ АККОРДЫ:
Adblock
detector