Avril Lavigne – Together: аккорды для гитары

Текст песни "Avril Lavigne – Together" с аккордами для гитары

Verse:		[E-1-------3-----1-----1---
B-3-------3-----1-----1---
G-3-------3-----3-----2---
D-1-------5-----3-----3---
A-1-------3-----1-----3---
D-1-------3-----1-----1---]

Pre-Chorus/Chorus:
[E-5-5--1-1--1-1--3-3--5-5--1-1--1-1----------
B-8-8--4-4--3-3--6-6--8-8--4-4--3-3----------
G-7-7--3-3--3-3--5-5--7-7--3-3--3-3----------
D-5-5--1-1--3-3--3-3--5-5--1-1--3-3----------
A-5-5--1-1--1-1--3-3--5-5--1-1--1-1----------
D-5-5--1-1--------3-3--5-5--1-1-----------------]
Something just isn't right
I can feel it inside
The truth isn't far behind me
You can't deny
When I turn the lights out
When I close my eyes
Reality overcomes me
I'm living a lie
Chorus
When I'm alone
I feel so much better
And when I'm around you
I don't feel
Together
It doesn't feel right at all
Together
Together we've built a wall
Together
Holding hands we'll fall
Hands we'll fall
This has gone on too long
I realize that I need
Something good to rely on
Something for me
Chorus
My heart is broken
I'm here
My thoughts are choking
On you, my dear
On you, my dear
On you, my dear
Chorus } 2x
When I'm around you
When I'm around you
I don't feel together, no
I don't feel together, no
When I'm around you
When I'm around you
I don't feel together, no
I don't feel together
Важно! Чтобы посмотреть аппликатуру нужного аккорда к песне “Avril Lavigne – Together“, просто наведите мышку/кликните на сам аккорд.

Видео/Клип на песню “Avril Lavigne – Together”:

Нажмите на звезду, чтобы оценить!

Средняя оценка 0 / 5. Количество оценок: 0

Оценок пока нет. Поставьте оценку первым.

Подписаться
Уведомление о
guest
0 Комментарий
inline-комментарии
Посмотреть все комментарии
ПОПУЛЯРНЫЕ АККОРДЫ:
Adblock
detector