Виктор Цой (Кино) – Апрель: аккорды песни

118

Текст песни "Виктор Цой (Кино) – Апрель" с аккордами для гитары

ПОКАЗАТЬ/СКРЫТЬ АККОРДЫ

Вступление:

e|---0--[Em0----0--0---8----8--7--5--3----5--7--2--2--2--2-----|
B|------0-------0----0-------------0----------0--0--0--0----|
G|------0-------0-----0-------------0----------0--0--0----0-|
D|------2-------2---7----7--5--4--2----4--5--0--------------|
A|-2----2--2----2-------------------------------------------|
E|------0-------0-------------------------------------------|

Куплет 1:
Над землей – мороз,
Что не тронь, все – лед.
Лишь во сне моем поет капель
А снег идет стеной,
А снег идет весь день,
А за той стеной стоит   апрель.


Припев:
А он придет и приведет за  собой  весну.
И рассеет серых туч войска.   
А когда мы все посмотрим в глаза его,
На нас из глаз его посмотрит  тоска.   
И откроются двери домов.
Да ты садись, а то в ногах правды нет.   
И когда мы все посмотрим в глаза его,
То увидим в тех глазах солнца свет.   


Куплет 2:
На теле ран не счесть,
И виски седы,
Лишь в груди горит звезда.   
И умрет апрель,
И родится вновь,
И придет уже навсегда.   


Припев:
А он придет и приведет за  собой  весну.
И рассеет серых туч войска.   
А когда мы все посмотрим в глаза его,
На нас из глаз его посмотрит  тоска.   
И откроются двери домов.
Да ты садись, а то в ногах правды нет.   
И когда мы все посмотрим в глаза его,
То увидим в тех глазах солнца свет.   


Финальный проигрыш:

|-3----5----7--8----7----8----7--5--3--5--7--2--2--2--2----|
|--0----0-------0----0----0-------------------0--0--0--0---|
|---0----0-------0----0----0-------------------0--0--0---0-|
|-2----4----5--7----5----7----5--4--2--4--5--0-------------|
|----------------------------------------------------------|
|----------------------------------------------------------|

Аппликатуры аккордов для гитары на песню “Виктор Цой (Кино) – Апрель”:

Видео/Клип на песню “Виктор Цой (Кино) – Апрель”:

Песня “Виктор Цой (Кино) – Апрель” на Яндекс.Музыка:

Представленные аккорды на песню Виктора Цоя (Кино) – “Апрель”, а также приложенные к ним партитуры аккордов для гитары, помогут вам в её быстром и эффективном разучивании.

Если вы найдете какую-либо ошибку или захотите дополнить нашу публикацию, дайте знать об этом в комментариях. Заранее спасибо!

Нажмите на звезду, чтобы оценить!

Средняя оценка / 5. Количество оценок:

Оценок пока нет. Поставьте оценку первым.

Подписаться
Уведомление о
guest
0 Комментарий
inline-комментарии
Посмотреть все комментарии