Виктор Цой (Кино) – Последний герой: аккорды песни

115

Вступление:

1|--0--0--0--------3-------2-------0---|-2-3-2-3-2-3-2-3-2-
2|--0--0--0-------0-------0-------0----|-3-3-3-3-3-3-3-3-3-
3|--0--0--0------0-------0-------0-----|-2-2-2-2-2-2-2-2-2-
4|--2--2--2-----2-------2-------2------|-0-0-0-0-0-0-0-0-0-
5|--2--2--2----2-------2-------2-------|-0-0-0-0-0-0-0-0-0-
6|--0--0--0---0-------0-------0--------|-0-0-0-0-0-0-0-0-0-

Бас (конец):

1|----------2----------2--3-5----(7)---
2|----------3----------3--4-6----(8)---
3|----------4----------4--5-7----(9)---
4|----------4----------4--5-7----(9)---
5|----------2----------2--3-5----(7)---
6|-0-7-0-3--2--0-7-0-3-2--3-5----(7)---

Куплеты:

1-----------------------------------------------------------
2|--------0-0-------0-----------------------------0-0-0-0-0-
3|------0-----2-0-2---0-0-0-----0-2-0---0-------0-----------
4|--2-2---------------------4-4-------4---4-2-2-------------
5-----------------------------------------------------------
6-----------------------------------------------------------

----------------------------------
0-0------------------------0------
----2--2-2-0-0-0-------0-0---2----
-----------------4-4-4------------
----------------------------------
----------------------------------

Припевы:

-0-0-0---------------0-0-0--------------------0-0-0---------
-------0-0-0-0-------------0-0-0-0------------------0-0-0-0-
---------------2-0-2---------------2-0-2-0------------------
-------------------------------------------4----------------
------------------------------------------------------------
------------------------------------------------------------

-------------------------------
----------------------0--------
2-0-2---0---0-----------2------
----------2---4-4-4-4----------
-------------------------------
-------------------------------

Ночь коротка, цель далека,  
Ночью так часто хочется пить,  
Ты выходишь на кухню,
Но вода здесь горька,  
Ты не можешь здесь спать,
Ты не хочешь здесь жить.

Припев:
  Доброе утро, последний герой!
  Доброе утро тебе и  таким, как ты,
  Доброе утро, последний герой.  
  Здравствуй, последний герой!   

Ты хотел быть один, это быстро прошло,
Ты хотел быть один, но не смог быть один,
Твоя ноша легка,  но немеет рука,
И ты встречаешь рассвет за игрой в дурака.

Утром ты стремишься скорее уйти,
Телефонный звонок, как команда “Вперед!”
Ты уходишь туда,    куда не хочешь идти,
Ты уходишь туда,    но тебя там никто не ждет!

Аппликатуры аккордов для гитары на песню “Виктор Цой (Кино) – Последний герой”:

Видео/Клип на песню “Виктор Цой (Кино) – Последний герой”:

Песня “Виктор Цой (Кино) – Последний герой” на Яндекс.Музыка:

Представленные аккорды на песню Виктора Цоя (Кино) – Последний герой, а также приложенные к ним партитуры аккордов для гитары, помогут вам в её быстром и эффективном разучивании.

Если вы найдете какую-либо ошибку или захотите дополнить нашу публикацию, дайте знать об этом в комментариях. Заранее спасибо!

Нажмите на звезду, чтобы оценить!

Средняя оценка / 5. Количество оценок:

Оценок пока нет. Поставьте оценку первым.