Конец Фильма – Юность в сапогах: аккорды песни

55

Текст песни "Конец Фильма – Юность в сапогах" с аккордами для гитары

ПОКАЗАТЬ/СКРЫТЬ АККОРДЫ

Вступление:


e|-----------------------------0-|
B|-3-3-3-1-0-1-----3-3-3-1-0-1---|
G|-------------2-----------------|

Здравствуй, небо в облаках,
Здравствуй, юность в сапогах!
Пропади, моя тоска,
Вот он я, привет, войска!


e|------------------------|
B|-----1---1------------3-|
G|---2-------2--------4---|
D|-3-----------3----5-----|

Эх, рельсы-поезда,
Как я попал сюда?


e|------|-0-1--0---|-0-1--0---|-0-1--0---|-0-1--0---|
B|--1-3-|--------3-|--------3-|--------3-|--------3-|
G|------|----------|----------|----------|----------|

Здесь не то что на гражданке,
На какой-нибудь гражданке,
Жизнь снаружи и с изнанки  
Сам попробуй изучи.  

Для печали нет причин.
Непросто быть собой,
Когда шагает строй.


e|------|-0-1--0---|-0-1--0---|-0-1--0---|-0-1--0---|
B|--1-3-|--------3-|--------3-|--------3-|--------3-|
G|------|----------|----------|----------|----------|

Только сердце птицей бьется,  
И ликует, и смеется,   
И ему не удается  
Под конвоем петь в груди.

Знать бы, что там впереди.

Где-то течет река,
Где-то дом, где все ждут нас назад.   
Это  не грусть слегка,
Просто ветер щекочет глаза.     


Проигрыш:
|  


Где-то течет река,
Где-то дом, где все ждут нас назад.    
Это  не грусть слегка,
Просто ветер щекочет глаза.     


e|-----------------------------0-|
B|-3-3-3-1-0-1-----3-3-3-1-0-1---|
G|-------------2-----------------|

Шаг вперед и два назад,
Кто бы знал, чему я рад?
Просто сбросил я печаль
Словно голову с   плеча.


e|------------------------|
B|-----1---1------------3-|
G|---2-------2--------4---|
D|-3-----------3----5-----|

На стыках рельсов путь,
Виски вбивает пульс.


e|------|-0-1--0---|-0-1--0---|-0-1--0---|-0-1--0---|
B|--1-3-|--------3-|--------3-|--------3-|--------3-|
G|------|----------|----------|----------|----------|

Ты поймешь, как будет нужно,
Где предательство, где дружба,
Где карьера,   а где служба,   
И как сердце безоружно,   

Как обманчива наружность,   
Сколько  звезд и сколько лычек,
Сколько лиц, личин, обличий,
И как мало в нас различий.


Кода:

Аппликатуры аккордов для гитары на песню “Конец Фильма – Юность в сапогах”:

Видео/Клип на песню “Конец Фильма – Юность в сапогах”:

Песня “Конец Фильма – Юность в сапогах” на Яндекс.Музыка:

Нажмите на звезду, чтобы оценить!

Средняя оценка / 5. Количество оценок:

Оценок пока нет. Поставьте оценку первым.

Подписаться
Уведомление о
guest
0 Комментарий
inline-комментарии
Посмотреть все комментарии