Гражданская Оборона – На наших глазах: аккорды песни

43

Текст песни "Гражданская Оборона – На наших глазах" с аккордами для гитары


Вступление:
Гитарное соло (также играем в проигрыше после каждого припева):

1) --------------------------------------------------------------------------------
2) --------------------------------------------------------------------------------
3) --------------------------------------------------------------------------------
4)  10--10-10-9-10-12-10---10-10-14-15-14-10--10-10-9-10-12-10-17-17-17-17-15-14-10
5) --------------------------------------------------------------------------------
6) --------------------------------------------------------------------------------

Басовое соло:

1) ------------------------------
2) -------2-2-5-5-3-3--3-5-5-3-2-
3) 3-3--3------------------------
4) ------------------------------

Куплет:
***Басовое соло***


Припев:
***Гитарное соло после припева***
Бас:
Паттерн игры 1 части припева (от слова “глазах” до “шаги” или “уходит”, в зависимости от припева):

1) ----------------------------------------------------------
2) ----------------------------------------------------------
3) -3-3--3-3-3-3-3-0-0--0-0-0-0-0-------------------------2--
4) ---------------------------------1-1--1-1-0-1-3--3-3-3----

Паттерн игры 2 части припева (от слова “уходит” или “шаги” до “вселенский по…” или “наших гла…” в зависимости от припева):

1) ------------------------------------------
2) ------------------------------------------
3) -3--3-3-3-3-5-0-0--0-0-0-0-3-3-3-5-2-2-3--
4) ------------------------------------------

Затем басовое соло


Вступление:

На карте кружком  обозначено солнце
Пунктирные линии – ветер и соль   
Под веками плавают сны на оконце
Спадает волнами зелёная   боль   


Припев:
На наших глазах  разрушаются стены  
Срастаются руки, теряя контроль  
И время уходит с загаженной сцены  
Его заменяет вселенский покой   
Вселенский покой


Мы вышли за рамки людских  представлений  
И даже представить себе не   могли    
Что выше всех горестей, бед и  мучений  
Мы будем под слоем промёрзшей земли


Припев:
На наших глазах  разрушаются стены  
Срастаются руки, теряя контроль  
И время уходит с загаженной сцены  
Его заменяет вселенский покой   
Вселенский покой

4 раза:
1) 8-7-8-10-8-8-7-5-3-1-0 x4


На карте кружком  обозначено солнце
Пунктирные линии – ветер и соль   
Под веками плавают сны на оконце
Спадает волнами зелёная   боль   


Припев:
На наших глазах  разрушаются стены  
Срастаются руки, теряя контроль  
И время уходит с загаженной сцены  
Его заменяет вселенский покой   
            На наших глазах.
            На наших глазах.
            На наших глазах.

Аппликатуры аккордов для гитары на песню “Гражданская Оборона – На наших глазах”:

Видео/Клип на песню “Гражданская Оборона – На наших глазах”:

Песня “Гражданская Оборона – На наших глазах” на Яндекс.Музыка:

Нажмите на звезду, чтобы оценить!

Средняя оценка / 5. Количество оценок:

Оценок пока нет. Поставьте оценку первым.

Подписаться
Уведомление о
guest
0 Комментарий
inline-комментарии
Посмотреть все комментарии