Генералы песчаных карьеров: аккорды песни

56

Вступление/Проигрыш:

e|-------------|  
B|-------1--3--|  
G|----2--------|  
D|-------------|  
A|-------------|  
E|-------------|  
  
e|-0-----------|-------0-----|-------------|-------0-----|  
B|----3--1--0--|----------1--|-3-----3-----|-3--1-----3--|  
G|-------------|-2--2--------|----2-----2--|-------------|  
D|-------------|-------------|-0-----------|-------------|  
A|-0-----------|-0-----------|-------------|-------------|  
E|-------------|-------------|-------------|-------------|  
  
e|-------------|-------------|-------------|-0-----------|  
B|-1-----1-----|-1--1--3--1--|-0--------0--|-------1--3--|  
G|----0-----0--|-------------|-------1-----|----2--------|  
D|-------------|-------------|----2--------|-------------|  
A|-3-----------|-------------|-------------|-------------|  
E|-------------|-------------|-0-----------|-------------|  
  
e|-0-----------|-------5-----|-3-----------|----0--5--3--|  
B|----3--1--0--|----------5--|-------0-----|-0-----------|  
G|-------------|-2--2--------|----0-----0--|-------------|  
D|-------------|-------------|-------------|-------------|  
A|-0-----------|-0-----------|-------------|-------------|  
E|-------------|-------------|-3-----------|-------------|  
  
e|-1-----------|-------3--1--|-0-----------|-0-----------|  
B|-------1-----|-1--3--------|----------0--|-------1--3--|  
G|----0-----0--|-------------|-------1-----|----2--------|  
D|-------------|-------------|----2--------|-------------|  
A|-3-----------|-------------|-------------|-------------|  
E|-------------|-------------|-0-----------|-------------|  
  
e|-0-----------|-------0-----|-------------|-------0-----|  
B|----3--1--0--|----------1--|-3-----3-----|-3--1-----3--|  
G|-------------|-2--2--------|----2-----2--|-------------|  
D|-------------|-------------|-0-----------|-------------|  
A|-0-----------|-0-----------|-------------|-------------|  
E|-------------|-------------|-------------|-------------|  
  
e|-------------|-------------|-------------|-------------|  
B|-1--0--3--1--|-0-----1 р0--|-------------|-------------|  
G|-------------|-------------|-2-----------|-------------|  
D|-------------|----2--------|-------------|-------------|  
A|-3-----------|-------------|-0-----------|-------------|  
E|-------------|-0-----------|-------------|-------------| 

Я начал жизнь в трущобах городских,  
И добрых слов я не слыхал.
Когда ласкали вы детей своих-  
Я есть просил, я замерзал.  
Вы увидав меня не прячьте взгляд  
Ведь я ни в чем, ни в чем не виноват.  


Проигрыш:


За что вы бросили меня, за что?  
Где мой очаг?  Где мой ночлег?
Не признаете вы мое родство,  
А я вам брат, я человек.  
Вы вечно молитесь своим богам,  
И ваши боги все прощают вам.


Проигрыш:


Край небоскребов и шикарных вилл,
Из окон льет слепящий свет.
О, если б мне хоть раз набраться сил,
Вы б дали мне за все ответ.
Откройте двери, люди, я ваш брат
Ведь я ни в чем, ни в чем не виноват.  


Проигрыш:


Вы знали ласки матерей родных,   
А я не знал и лишь во сне,
В моих мечтаниях детских золотых
Мать иногда являлась мне.  
О мама если бы найти тебя,  
Была б не так горька моя судьба.  

Аппликатуры аккордов для гитары на песню “Генералы песчаных карьеров”:

Видео/Клип на песню “Генералы песчаных карьеров”:

Песня “Генералы песчаных карьеров” на Яндекс.Музыка:

Представленные аккорды на песню “Генералы песчаных карьеров”, а также приложенные к ним партитуры аккордов для гитары, помогут вам в её быстром и эффективном разучивании.

Если вы найдете какую-либо ошибку или захотите дополнить нашу публикацию, дайте знать об этом в комментариях или отправьте нам письмо на email. Заранее спасибо!