Nirvana – Come As You Are: аккорды песни

59

Вступление (Бас):

G|----------------------------------
D|----------------------------------
A|----------0---0---------2-------2-
E|--0-0-1-2---2---2-2-1-0----0-0----

Come as you are, as you were
As I want you to be
As a friend, as a friend
As an old enemy
Take your time, hurry up
Choice  is yours don’t be late
Take a rest, as a friend
As an old enemyyy yeah
Memoria } – раза


Come dowsed in mud, soaked in bleach
As I want you to be
As a trend, as a friend
As an old enemyyy yeah
Memoria


Well I swear that I don’t have a gun
No I don’t have a gun
No I don’t have a gun
Memoria


Well I swear that
I don't have a gun } – 3 раза


Соло:

e|------------------------------------------------
B|-----------------------------------------9------
G|------9---11--------9---11--------9—--11---11---
D|--11----------11--------------11----------------
A|------------------------------------------------
E|------------------------------------------------

e|-----------
B|-----------
G|-----9-----
D|--------11-
A|-----------
E|-----------

Аппликатуры аккордов для гитары на песню “Nirvana – Come As You Are”:

Видео/Клип на песню “Nirvana – Come As You Are”:

Песня “Nirvana – Come As You Are” на Яндекс.Музыка:

Нажмите на звезду, чтобы оценить!

Средняя оценка / 5. Количество оценок:

Оценок пока нет. Поставьте оценку первым.