Mansionair – Speak Easy: аккорды для гитары

Текст песни "Mansionair – Speak Easy" с аккордами для гитары

SONG:   SPEAK EASY
ARTIST: MANSIONAIR
TAB BY: DON CZARSKI
EMAIL:  GUITARZAN7@HOTMAIL.COM


                 SPEAK EASY
                 MANSIONAIR

INTRO: GUITAR 1

NOTE: This is basically the pattern used to play the song
      as well for the verses.

   G             D             Bm           Bm
E --------------------------------------------------------
B ---3---3---3-----3---3---3-----3---3---3-----3---3---3--
G -0---0---0-----2---2---2-----4---4---4-----4---4---4----
D --------------------------------------------------------
A --------------------------------------------------------
E --------------------------------------------------------

   G             D             Bm           Bm
E --------------------------------------------------------
B ---3---3---3-----3---3---3-----3---3---3-----3---3---3--
G -0---0---0-----2---2---2-----4---4---4-----4---4---4----
D --------------------------------------------------------
A --------------------------------------------------------
E --------------------------------------------------------


VERSE:
  G          D       Bm
Speak, speak easy to me
                   G
Got a lot on your mind
      D      Bm
This time tonight
  G          D       Bm
Speak, speak easy to me
                   G      D        Bm
Don't let this go down tonight, tonight


INSTRUMENTAL: 
                      GUITAR 1                                   GUITAR 2
   G             D             Bm           Bm
E --------------------------------------------------------  E -14---12--10---
B ---3---3---3-----3---3---3-----3---3---3-----3---3---3--  B ----12--10---7-
G -0---0---0-----2---2---2-----4---4---4-----4---4---4----  G ---------------
D --------------------------------------------------------  D ---------------
A --------------------------------------------------------  A ---------------
E --------------------------------------------------------  E ---------------

                      GUITAR 1                                   GUITAR 2
   G             D             Bm           Bm
E --------------------------------------------------------  E -14---12--10---
B ---3---3---3-----3---3---3-----3---3---3-----3---3---3--  B ----12--10---7-
G -0---0---0-----2---2---2-----4---4---4-----4---4---4----  G ---------------
D --------------------------------------------------------  D ---------------
A --------------------------------------------------------  A ---------------
E --------------------------------------------------------  E ---------------

                      GUITAR 1                                   GUITAR 2
   G             D             Bm           Bm
E --------------------------------------------------------  E -14---12--10---
B ---3---3---3-----3---3---3-----3---3---3-----3---3---3--  B ----12--10---7-
G -0---0---0-----2---2---2-----4---4---4-----4---4---4----  G ---------------
D --------------------------------------------------------  D ---------------
A --------------------------------------------------------  A ---------------
E --------------------------------------------------------  E ---------------

                      GUITAR 1                                   GUITAR 2
   G             D             Bm          
E -------------------------------------------               E -14---12--10---         
B ---3---3---3-----3---3---3-----3---3---3---               B ----12--10---7-
G -0---0---0-----2---2---2-----4---4---4-----               G ---------------
D -------------------------------------------               D ---------------
A -------------------------------------------               A ---------------
E -------------------------------------------               E ---------------
 

VERSE:
  G          D       Bm
Speak, speak easy to me
             G           D      Bm
My victory sleeps, and holds defeat
  G                 F#           Bm
Speak, and may the world come undone
                       G      D        A
Will you write on the wall tonight, tonight


CHORUS:
    G       D           Bm       
And oh god this is the last time
    G       D           Bm
And oh god this is the last time
                   G
Come and keep the dialogue
 D           Bm   Em
Will it ever be enough
          Bm       Em
Come and keep the dialogue
 D   G
For now


INSTRUMENTAL: 
                      GUITAR 1                                   GUITAR 2
   G             D             Bm           Bm
E --------------------------------------------------------  E -14---12--10---
B ---3---3---3-----3---3---3-----3---3---3-----3---3---3--  B ----12--10---7-
G -0---0---0-----2---2---2-----4---4---4-----4---4---4----  G ---------------
D --------------------------------------------------------  D ---------------
A --------------------------------------------------------  A ---------------
E --------------------------------------------------------  E ---------------

                      GUITAR 1                                   GUITAR 2
   G             D             Bm           Bm
E --------------------------------------------------------  E -14---12--10---
B ---3---3---3-----3---3---3-----3---3---3-----3---3---3--  B ----12--10---7-
G -0---0---0-----2---2---2-----4---4---4-----4---4---4----  G ---------------
D --------------------------------------------------------  D ---------------
A --------------------------------------------------------  A ---------------
E --------------------------------------------------------  E ---------------


VERSE:
  G          D       Bm
Speak, speak easy to me
                   G        D      Bm
And I peek at the seas and see release
 G         F#                Bm
Seek, and look through your teeth
                G  D  A
You're lying to me-ee-ee


CHORUS:
    G       D           Bm       
And oh god this is the last time
    G       D           Bm
And oh god this is the last time
                   G
Come and keep the dialogue
 D               Bm      Em
Were you falling out of touch  
          Bm       Em
Come and keep the dialogue
 D   G
For now


BRIDGE: (No Chords) - (ACAPELLA)

    (D) (G)     (A)
So speak easy to me ba, ba, ba
    (D) (G)     (A)
So speak easy to me ba, ba, ba
    (D) (G)     (A)
So speak easy to me
    (D) (G)     (A)
So speak easy to me
    (D) (G)     (A)
So speak easy to me
    (D) (Em)    (G)
So speak easy to me


CHORUS:
    G       D           Bm       
And oh god this is the last time
    G       D           Bm
And oh god this is the last time
                   G
Come and keep the dialogue
 D               Bm      Em
Were you falling out of touch  
          Bm       Em
Come and keep the dialogue
 D   G
For now


OUTRO:
          Bm       G
Come and keep the dialogue
 D           Bm    Em
Will it ever be enough
          Bm       Em
Come and keep the dialogue
 D   G
For now
  
  G          Bm      Em
Speak, speak easy to me
Важно! Чтобы посмотреть аппликатуру нужного аккорда к песне “Mansionair – Speak Easy“, просто наведите мышку/кликните на сам аккорд.

Видео/Клип на песню “Mansionair – Speak Easy”:

Нажмите на звезду, чтобы оценить!

Средняя оценка 0 / 5. Количество оценок: 0

Оценок пока нет. Поставьте оценку первым.

Подписаться
Уведомление о
guest
0 Комментарий
inline-комментарии
Посмотреть все комментарии
ПОПУЛЯРНЫЕ АККОРДЫ:
Adblock
detector