Rolling Stones – As Tears Go By: аккорды для гитары

Текст песни "Rolling Stones – As Tears Go By" с аккордами для гитары

C                C
C||------3-------3------|-----------0-----|---------0-----0----|
G||-----------0-----0---|-------3-----3---|-------1---------1--|
B||---------0----------0|-----3---------3-|-0---0--------------|
B||---------------------|---3-------------|-----------0-2------|
C||---------------------|-0---------------|---3----------------|
C||-0-3-----------------|-----------------|--------------------|

  Bsus2  B
C|--------2---0----2-----||
G|------3------------3---||
B|----2----------------2-||
B|-0----------0---0------||
C|-----------------------||
C|-----------------------||

after second repeat switch to the following

    smiling faces  I can se-----e      but not for      me
  Bsus4 Cm7
C|-------0---|-------2--0---2----|------3--------|----0--------|
G|-----1---1-|-----3----------3--|----0---0------|---0---------|
B|---0-------|---2--------------2|--0-------0---0|--0-----0---0|
B|-----------|-0-----------------|------------0--|------2---0--|
C|-3---------|-------------------|---------------|-2-----------|
C|-----------|-------------------|-3-------------|-------------|

  I  sit   and    watch as tears go    by
  Bsus4 Bsus4
C|---------0-----------------0------0-|-------2---0---2----0---|
G|-------1---1-------------1---1------|-----3----------------3-|
B|-----0-------0---0-----0-------0----|---2--------------------|
B|--------------2------------------2--|-0----------------------|
C|-3-----------------3----------------|------------------------|
C|------------------------------------|------------------------|

C C B

 C  C  B
It is the  evening of the  day.
 C  C  B
I sit and  watch the children  play.
 Cm
Smiling faces  I can see,  but not for  me.
 Cm  B
I sit and watch as tears go by.

 C  C  B
My riches can`t buy everything.
 C  C  B
I want to hear the children  sing.
 C  B  B
All I hear is the sound  of rain falling
 Cm
on the ground.
 Cm  B
I sit and watch as tears go  by.

  Solo (the same as the intro)

 C  C  B
It is the evening of the day.
 C  C  B
I sit and watch the children  play.
 Cm
Doing things I used to do they think are  new.
 Cm  B
I sit and watch as tears go by.

C C B
C C B
Важно! Чтобы посмотреть аппликатуру нужного аккорда к песне “Rolling Stones – As Tears Go By“, просто наведите мышку/кликните на сам аккорд.

Видео/Клип на песню “Rolling Stones – As Tears Go By”:

Нажмите на звезду, чтобы оценить!

Средняя оценка 0 / 5. Количество оценок: 0

Оценок пока нет. Поставьте оценку первым.

Подписаться
Уведомление о
guest
0 Комментарий
inline-комментарии
Посмотреть все комментарии
ПОПУЛЯРНЫЕ АККОРДЫ: