Blink 182 – First Date: аккорды для гитары

Текст песни "Blink 182 – First Date" с аккордами для гитары

E|---|
B|---|
G|-5-|
D|-5-|
A|-3-|
E|---|

  In the car i jast...
E|--------------|
B|--------------|
G|-55--55-55-55-|
D|--------------|
A|--------------|
E|--------------|
   ПРИПЕВ.
E|--------------------|
B|------------222-----|
G|-5-5----5-5-222-----|
D|-5-5----5-5-222-3-5-| 4раза
A|-3-3----2-2-----3-5-|
E|----------------1-3-|
        Lets go torn wa......
riff1
E|---------------|
B|---------------|
G|-55------------|
D|-55--22--33-55-| 2раза
A|-33--22--33-55-| глушение струн.
E|---------11-33-|
  сколько раз бить по струнам разберётесь сами.

Продолжение выше написано. Только с Distoksion.
E|--------------------------------|
B|--------------------------------|
G|-9999/55-10101010/55-7777-55555-| 3раза
D|-9999/55-10101010/55-7777-55555-|
A|-7777/33--8-8-8-8/33-5555-33333-|
E|--------------------------------|
   потом припев.
Важно! Чтобы посмотреть аппликатуру нужного аккорда к песне “Blink 182 – First Date“, просто наведите мышку/кликните на сам аккорд.

Видео/Клип на песню “Blink 182 – First Date”:

Нажмите на звезду, чтобы оценить!

Средняя оценка 0 / 5. Количество оценок: 0

Оценок пока нет. Поставьте оценку первым.

Подписаться
Уведомление о
guest
0 Комментарий
inline-комментарии
Посмотреть все комментарии
ПОПУЛЯРНЫЕ АККОРДЫ: