Mac DeMarco – Still Beating: аккорды для гитары

Текст песни "Mac DeMarco – Still Beating" с аккордами для гитары

[Intro]

e|------------------------------------------------------------------------------------------------------------
B|-------9-------11------------14--12--11--------------------------------------------------------------------
G|-----8-------8----------11-------11--11----------11-11----11/15---------11-11-----11-----------------------
D|8/11-----8/11------11/13---------13--11---11/13-------------------11/13---------13---13-11----------------
A|------------------------------------------------------------------------------------------------------------
E|------------------------------------------------------------------------------------------------------------


e|------------------------------------------------------------------------------------------------------------
B|-------9-------11------------14--12--11--------------------------------------------------------------------
G|-----8-------8----------11-------11--11----------11-11----11---------11-11-----11--13-13------------------
D|8/11-----8/11------11/13---------13--11---11/13-------------------11/13-------13---------------------------
A|------------------------------------------------------------------------------------------------------------
E|------------------------------------------------------------------------------------------------------------


e|------------------------------------------------------------------------------------------------------------
B|-------9-------11------------14--12--11--------------------------------------------------------------------
G|-----8-------8----------11-------11--11--------------------------------------------------------------------
D|8/11-----8/11------11/13---------13--11--------------------------------------------------------------------
A|------------------------------------------------------------------------------------------------------------
E|------------------------------------------------------------------------------------------------------------
             *Repeat 3 times*... and so on.

NOTE:  These tabs are played with the reference point still as if the capo wasn't on, (i.e. --1-- would 
indicate the actual first fret with no capo, not the first fret up from the capo.  So honestly, you could
play the intro without capo on 4.  Capo on 4 only helps with the chords, which are as follows: 

D6,A7,Em,G6

STRUM PATTERN:  
1 & 2 & 3 & 4 & 
D   D   D U



************************************

|   Slide down
| /  Slide up

************************************
Важно! Чтобы посмотреть аппликатуру нужного аккорда к песне “Mac DeMarco – Still Beating“, просто наведите мышку/кликните на сам аккорд.

Видео/Клип на песню “Mac DeMarco – Still Beating”:

Нажмите на звезду, чтобы оценить!

Средняя оценка 0 / 5. Количество оценок: 0

Оценок пока нет. Поставьте оценку первым.

Подписаться
Уведомление о
guest
0 Комментарий
inline-комментарии
Посмотреть все комментарии
ПОПУЛЯРНЫЕ АККОРДЫ:
Adblock
detector