RAF Camora – Primo: аккорды для гитары

Текст песни "RAF Camora – Primo" с аккордами для гитары

[Main Riff]

e|--0-----0-----------0------------------------------------------------------|
B|-----3-----------------3--0--1--0------------------------------------------|
G|-----------2-----0-----------------2--------0------------------------------|
D|-----------------------------------------3-----3---------------------------|
A|--0-----------3------------------------------------------------------------|
E|--------------------------3-----------1------------------------------------|

e|--0-----0-----------0------------------------------------------------------|
B|-----3-----------------3--0--1--0-----------0--1---------------------------|
G|-----------2-----0-----------------2-----2---------------------------------|
D|---------------------------------------------------------------------------|
A|--0-----------3------------------------------------------------------------|
E|--------------------------3-----------1------------------------------------|
Важно! Чтобы посмотреть аппликатуру нужного аккорда к песне “RAF Camora – Primo“, просто наведите мышку/кликните на сам аккорд.

Видео/Клип на песню “RAF Camora – Primo”:

Нажмите на звезду, чтобы оценить!

Средняя оценка 0 / 5. Количество оценок: 0

Оценок пока нет. Поставьте оценку первым.

Подписаться
Уведомление о
guest
0 Комментарий
inline-комментарии
Посмотреть все комментарии
ПОПУЛЯРНЫЕ АККОРДЫ: