Чайф – С войны: аккорды песни

54

Вступление и проигрыш между куплетами:

|----0-------2h3----|
|----3------3-------|
|---0------2--------|
|--2------0---------|
|-------------------|
|-0-----------------|

Играем первые 3 строки каждого куплета следующим паттерном:

|----3--------2h3-------0-------0-----|
|----3-3------3---------1-1-----0-0---|
|---0-0------2---2-----2-2-----0-0----|
|-----------0-------------------------|
|---------------------0---------------|
|-3---------------------------0-------|

Завершающую 4-ую строку строка каждого куплета играем так:

|----3--------2h3-------0--------------------0---|   
|----3-3------3---------1-1-----1------3-----0---|   
|---0-0------2---2-----2-2-----0------2-----0----|   
|-----------0------------------------0-----------|   
|---------------------0-------3------------2-----|   
|-3----------------------------------------------|   

В твоем парадном темно, резкий запах привычно бьет в нос.    
Твой дом был под самой крышей, в нем немного ближе до  звезд.
Ты шел не спеша, возвращаясь с войны.
Со сладким чувством победы, с горьким чувством вины.    


Вот твой дом, но в двери уже  новый замок.   
Здесь ждали тебя так долго, но ты вернуться не мог.    
И последняя ночь прошла в этом доме в слезах.     
И ты опять не пришел, и в дом пробрался страх.    


Страх смотрел ей в глаза отражением в темном стекле,     
Страх сказал, что так будет лучше, ей и тебе.     
Он указал ей на дверь и на новый замок.    
Он вложил в её руки ключ, и сделал так, чтоб ты вернуться не мог.


И ты вышел во двор, и  ты сел под окном, как брошенный пес.  
И вот чуть-чуть отошел, да немного замерз.    
И ты понял, что если б спешил, то мог бы успеть.   
Но что уж теперь поделать – ты достал  гитару и начал петь.  


А соседи шумят, они не могут  понять, когда хочется петь.     
Соседи не любят твоих песен,   они привыкли терпеть.    
Они привыкли каждый день входить в этот темный подъезд,     
Если есть запрещающий знак, они знают: где-то рядом объезд.


А ты орал веселую песню с грустным концом,   
А на шум пришли мужики и ты вытянул  спичку – тебе быть гонцом.
Пустая консервная банка, её наполняли вином.    
И вот ты немного согрелся, теперь  бороться со сном.     


И тогда ты им все рассказал, и про то, как был на войне.    
А один из них крикнул: “Врешь, музыкант!” и ты прижался к стене.
Ты ударил первый, тебя  как учил отец с ранних лет.    
И еще ты успел посмотреть на окно – в  это время она погасила свет.


В твоем парадном темно, резкий запах привычно бьет в нос.    
Твой дом был под самой крышей, в нем немного ближе до  звезд.
Ты шел не спеша, возвращаясь  с войны.    
Со сладким чувством победы, с горьким чувством вины…    

Аппликатуры аккордов для гитары на песню “Чайф – С войны”:

Видео/Клип на песню “Чайф – С войны”:

Песня “Чайф – С войны” на Яндекс.Музыка:

Нажмите на звезду, чтобы оценить!

Средняя оценка / 5. Количество оценок:

Оценок пока нет. Поставьте оценку первым.