Morphine – Im Free Now: аккорды для гитары

Текст песни "Morphine – Im Free Now" с аккордами для гитары

-------------------------------------------------------------------------------
                             I'M FREE NOW - Morphine
-------------------------------------------------------------------------------
Tabbed by: cachabolik

Drop lower E string (thick one, yes) whole tone, so you've got DADGBe

this tab is an ARRANGEMENT for GUITAR, mix from the bass and the sax lines
play it as you please

most of the chords come without any 3rd, so you'll be playing em on the three lower strings, 
with a 5th and 8ve

CHORDS USED
D=004xxx
D5=000(2)xx
E=2221xx
E5=222XXX
F#=444xxx
G=555xxx
Ab5=666xxx

Riff 1 (complete with your best feel)

   D5        E      D5              E      D
e|--------------------------------------------|
B|--------------------------------------------|
G|-2--4h2----1--1---2------2--4h2---1--1------|
D|-0---------2------0------0--------2------4--|
A|-0---------2------0------0--------2------0--|
D|-0---------2------0------0--------2------0--|
play riff1 twice as intro

[verse 1]
    D          E                            
I'm free now to direct a movie
D
Sing a song or write a book about yours truly
    D                E         
How I'm so interesting I'm so great
D 
I'm really just a fuck-up And It's such a waste
D                E
to burn down these walls around me
D 
Flexing like a heartbeat we don't like to 
D                    E
speak Don't talk to me for about a                             
D5!                                                          
week I'm sorry it just hurts to explain

D                               E                   D
There's something going on that makes my guts ache
      D                     E
I got guilt I got fear I got regret
D 
I'm just a panic stricken waste I'm such a jerk

[chorus]
      G5          D5      G5                 D5               
I was honest I swear the last thing I want to do           
G5          D5            G5            
Honest I swear the last thing I want to do is ever cause you...

riff2

  D5        E     D    D5        E    D    D5   E   A
  "...pain"            "oooh"   
e|----------------------------------------------------------------|
B|------------------------------------------3-------2--3-2-0------|
G|-2--4h2---1-1---------2--4h2---1-1--------2---4---2--------2----|
D|-0--------2-----4-----0--------2-----4----0---2---2----------4--|
A|-0--------2-----0-----0--------2-----0----0---2---0-------------|
D|-0--------2-----0-----0--------2-----0----0---2-----------------|
  

[back to verse riff twice]   
 
[bridge]
  F#5    D5                           
I'm free now                        
  F#5                 D5            
Free to look out the window         
  F#5           D5
Free to live my story
  F#5        F#5 E5 F#5 Ab5                 
Free to sing along

(repeat RIFF 2) x4

from now on its pretty much a matter of repeating from Verse to "...cause you pain" 
enjoy
salud amigos
Важно! Чтобы посмотреть аппликатуру нужного аккорда к песне “Morphine – Im Free Now“, просто наведите мышку/кликните на сам аккорд.

Видео/Клип на песню “Morphine – Im Free Now”:

Нажмите на звезду, чтобы оценить!

Средняя оценка 0 / 5. Количество оценок: 0

Оценок пока нет. Поставьте оценку первым.

Подписаться
Уведомление о
guest
0 Комментарий
inline-комментарии
Посмотреть все комментарии
ПОПУЛЯРНЫЕ АККОРДЫ:
Adblock
detector