Miracle of Sound – Embers Rise: аккорды для гитары

Текст песни "Miracle of Sound – Embers Rise" с аккордами для гитары

[Intro]
Dm E Dm Db
Gm Bb A

[Verse]
Dm                       E
 I've walked the coiling lines
Dm                  Db
 Set back a hundred times
Dm              Bb              A
Winding through worlds of weary kings

(Once more to the first)

Dm                 E
 Another crumbling hall
Dm                Db
 Another humbling fall
Gm            A                   Dm
Once more the mourning bells will ring

[Chorus]
                    Bb
But I won't be kept down
                  Dm
I'll just keep on rising
             E
Failure ever fading
                A
Growth in every pain

                Bb
I won't be kept down
              Dm
Embers keep igniting
                  A
Suns will sink to shade
                 Dm
But always rise again

[Instrumental 1]
Dm Bb A (x2)

[Guitar solo]
Dm E Dm Db
Gm Bb A

[Verse]
Dm                    E
 I've been a ghost of flame
Dm                Db
 A fading fire to claim
Gm        A               Dm
Lost in a world of aching shame

[Chorus]
                    Bb
But I won't be kept down
                  Dm
I'll just keep on rising
             E
Failure ever fading
                A
Growth in every pain

                Bb
I won't be kept down
              Dm
Embers keep igniting
                  A
Suns will sink to shade
                 Gm
But always rise again

[Instrumental 2]
Gm A Dm F
Gm A Dm

[Bridge]
Gm          A
Look to the sun
Dm            F
Hollow is the curse
        Gm      A
Now the end has begun
Dm
Once more to the first

Gm          A
Look to the sun
Dm            F
Hollow is the curse
       Gm        A
Beaten back, overrun

[Chorus]
                    Bb
But I won't be kept down
                  Dm
I'll just keep on rising
             E
Failure ever fading
                A
Growth in every pain

                Bb
I won't be kept down
              Dm
Embers keep igniting
                  A
Suns will sink to shade
                 Dm
But always rise again

[Outro]
Bb A Dm

Bb         A Dm
Always rise again
Bb A Dm

Bb         A Dm
Always rise again

   Bb A
Dm Bb A
Dm



// Tabs for the instrumental parts //


Instrumental 1: (also in the outro)

      Dm          Bb     A
e|----------------------------|
B|----------------------------|
G|---------------2/3-----2----|
D|----0----0-2-3--------------|
A|----------------------------|
E|----------------------------|

/ = slide

Instrumental 2: (also in the bridge)

     Gm      A      Dm      F
e|-------------------------------------|
B|-------------------------------------|
G|-----------2------------------3-2----|
D|----5--3-5--------0-0-2-2-3-3--------|
A|-------------------------------------|
E|-------------------------------------|

     Gm      A      Dm
e|------------------------------------|
B|------------------------------------|
G|-----------2------------------------|
D|----5--3-5----5/3-0-0-0-0-0-0-0-----|
A|------------------------------------|
E|------------------------------------|

/ = slide

Outro: (the part that kicks in after the lyrics)

      Dm           Bb         A
e|---------------------------------|
B|----3--3-2-3--------------3-2----|
G|--------------2--3--3-2-3--------|
D|---------------------------------|
A|---------------------------------|
E|---------------------------------|
Важно! Чтобы посмотреть аппликатуру нужного аккорда к песне “Miracle of Sound – Embers Rise“, просто наведите мышку/кликните на сам аккорд.

Видео/Клип на песню “Miracle of Sound – Embers Rise”:

Нажмите на звезду, чтобы оценить!

Средняя оценка 0 / 5. Количество оценок: 0

Оценок пока нет. Поставьте оценку первым.

Подписаться
Уведомление о
guest
0 Комментарий
inline-комментарии
Посмотреть все комментарии
ПОПУЛЯРНЫЕ АККОРДЫ:
Adblock
detector