Milky Chance – Where To Miss Soundtrack: аккорды для гитары

Текст песни "Milky Chance – Where To Miss Soundtrack" с аккордами для гитары

MILKY CHANCE - WHERE TO, MISS (Soundtrack title song)

Here is the chord progression as far as I can tell from the bits that are clearly audible from


Tuning: Standard

CAPO 1

It is the same chord progression throughout the song

   Em    C/G   Am    C/G
e--0-----0-----0-----0-----
B--0-----1-----1-----1-----
G--0-----0-----2-----0-----
D--2--0--2-----2-----2--0--
A--2-----3--2--0--2--3-----
E--0-----3-----x-----3-----

[INTRO]

Em   C/G   Am   C/G    (4x)
Ooh


[VERSE]

Em        C/G  
Gimme shelter
Am             C/G
hold me tight, on my journey
Em                    C/G       
See that fear in your eyes
Am              C/G
See them yearning, see them yearning for 

Em    C/G   Am   C/G
Home .........             (2x)


[INTERLUDE] 
(strum the notes)


e-7-7-7-7-7-7-5-7-8-8-8-8-8-8-7-7-5-5-5-5-5-5-7-7-8-8-8-8-8-8-7-5-7--------
B--------------------------------------------------------------------------
G--------------------------------------------------------------------------   (4x)
D--------------------------------------------------------------------------
A--------------------------------------------------------------------------
E--------------------------------------------------------------------------



[VERSE]

Em        C/G  
Gimme shelter
Am             C/G
hold me tight, on my journey
Em                    C/G       
See that fear in your eyes
Am              C/G
See them yearning, see them yearning for 

Em    C/G   Am   C/G
Home .........             (2x)



[CHORUS]

Em                     C/G
Where to miss, where to?
                Am
Where to run today?
                             C/G
Is there a chance for you and me to stay?
Em                     C/G
Where to miss, where to?
                 Am
I bring you everywhere
                           C/G
through the darkness of soceity

Em                     C/G
Where to miss, where to?
                Am
Where to run today?
                             C/G
Is there a chance for you and me to stay?
Em                     C/G
Where to miss, where to?
                 Am
I bring you everywhere
                           C/G
through the darkness of soceity


[OUTRO] 
(same as interlude)


e-7-7-7-7-7-7-5-7-8-8-8-8-8-8-7-7-5-5-5-5-5-5-7-7-8-8-8-8-8-8-7-5-7--------
B--------------------------------------------------------------------------
G--------------------------------------------------------------------------   (2x)
D--------------------------------------------------------------------------
A--------------------------------------------------------------------------
E--------------------------------------------------------------------------
Важно! Чтобы посмотреть аппликатуру нужного аккорда к песне “Milky Chance – Where To Miss Soundtrack“, просто наведите мышку/кликните на сам аккорд.

Видео/Клип на песню “Milky Chance – Where To Miss Soundtrack”:

Нажмите на звезду, чтобы оценить!

Средняя оценка 0 / 5. Количество оценок: 0

Оценок пока нет. Поставьте оценку первым.

Подписаться
Уведомление о
guest
0 Комментарий
inline-комментарии
Посмотреть все комментарии
ПОПУЛЯРНЫЕ АККОРДЫ:
Adblock
detector