Maluma – Felices Los 4: аккорды для гитары

Текст песни "Maluma – Felices Los 4" с аккордами для гитары

Maluma
Felices los 4
 
[INTRO]:  Instrumental  
      Dm  C  Gm  C


[Verse]: 00:09
G|----------------|----------------|----------------|----------------|
D|----------------|----------------|----------------|----------------|
A|----------------|----------------|----------------|----------------|
E|----------------|----------------|----------------|----------------|     
                    Dm                C
A penas sale el soy y tú te vas corriendo
             Gm                        C
Se que pensarás que esto me está doliendo
               Gm                       C
Yo no estoy pensando en lo que estas haciendo
         F                    Dm
Si somos ajenos y así nos queremos


[Pre-Chorus]: 00:29
G|----------------|----------------|----------------|----------------|
D|--5----5----5~--|----------------|----3------3~---|----------------|
A|----------------|--3----3----3~--|--3-----------3/|--5----x----5~--|
E|----------------|----------------|3---------------|----------------|     
 Gm
Si conmigo te quedas
               C
O con otro tu te vas
                   F
No me importa un carajo
                   Dm
Porque sé que volverás 

G|-----7-7----7---|----------------|-----5-5----5---|----------------|
D|-5-5-----5~---5-|-----5-5----5---|-3-3-----3~---3-|----------------|
A|----------------|-3-3-----3~---3-|----------------|-5~~------------|
E|----------------|----------------|----------------|----------------|     
                Gm
Si conmigo te quedas
               C
O con otro tu te vas
                   F
No me importa un carajo
                   Dm
Porque sé que volverás 


[Chorus]: 00:49 (play x2)
G|-----7-7----7---|----------------|----------------|----------------|
D|-5-5-----5~---5-|-----5-5----5---|----------------|-----7-7----7---|
A|----------------|-3-3-----3~---3-|-----3-3----3---|-5-5-----5~---5-| 
E|----------------|----------------|-1-1-----1~---1-|----------------|     
                       Gm
Y si con otro pasas el rato
             C
Vamos a ser feliz, vamos a ser feliz
            F
Felices los 4
                 Dm
Te agrandamos el cuarto

... 00:59
                       Gm
Y si con otro pasas el rato
              C
Vamos a ser feliz, vamos a ser feliz
            F
Felices los 4
                 Dm
Yo te acepto el trato


01:10
G|-----7-7----7---|----------------|-----5-5----5---|----------------|
D|-5-5-----5~---5-|-----5-5----5---|-3-3-----3~---3-|----------------|
A|----------------|-3-3-----3~---3-|----------------|-5~~------------|
E|----------------|----------------|----------------|----------------|     
                   Gm
Y lo hacemos otro rato
                   C
Y lo hacemos otro rato
                   F
Y lo hacemos otro rato
                   Dm
Y lo hacemos otro rato


[Chanteo]: 01:20
G|----------------|----------------|----------------|----------------|
D|--5----5----5~--|----------------|----3------3~---|----------------|
A|----------------|--3----3----3~--|--3-----------3/|--5----x----5~--|
E|----------------|----------------|3---------------|----------------|     
                  Gm
Y lo hacemos otro rato

Lo nuestro no depende de un pacto
     C
Disfruta y solo siente el impacto
            F
El boom boom que te quema, ese cuerpo de sirena
     Dm
Tranquila que no creo en contratos (Y tu menos...)


[Bridge]: 01:31 (play x2)
G|-----7-7----7---|----------------|-----5-5----5---|----------------|
D|-5-5-----5~---5-|----------------|-3-3-----3~---3-|-----7-7----7---|
A|----------------|-3~~------------|----------------|-5-5-----5~---5-|
E|----------------|----------------|----------------|----------------|     
      Gm                       C
Y siempre que se va, regresa a mi


“Y felices los 4”

      F                             Dm
No importa el que dirán, nos gusta así

G|-----7-7----7---|----------------|----------------|----------------|
D|-5-5-----5~---5-|----------------|----------------|-----7-7----7---|
A|----------------|-3~~------------|-----3-3----3---|-5-5-----5~---5-|
E|----------------|----------------|-1-1-----1~---1-|----------------|     
      Gm                       C
Y siempre que se va, regresa a mi


“Y felices los 4”

        F                   Dm
No importa el que dirán, somos tal para cual


[Chorus]: 01:52 (play x2)
G|-----7-7----7---|----------------|-----5-5----5---|----------------|
D|-5-5-----5~---5-|-----5-5----5---|-3-3-----3~---3-|----------------|
A|----------------|-3-3-----3~---3-|----------------|-5~~------------|
E|----------------|----------------|----------------|----------------|     
                       Gm
Y si con otro pasas el rato
             C
Vamos a ser feliz, vamos a ser feliz
            F
Felices los 4
                 Dm
Te agrandamos el cuarto

... 02:00
                       Gm
Y si con otro pasas el rato
              C
Vamos a ser feliz, vamos a ser feliz
            F
Felices los 4
                 Dm
Yo te acepto el trato

02:11
G|-----7-7----7---|----------------|----------------|----------------|
D|-5-5-----5~---5-|-----5-5----5---|----------------|-----7-7----7---|
A|----------------|-3-3-----3~---3-|----------------|-5-5-----5~---5-|
E|----------------|----------------|-1~~------------|----------------|     
                   Gm
Y lo hacemos otro rato
                   C
Y lo hacemos otro rato
                   F
Y lo hacemos otro rato
                   Dm
Y lo hacemos otro rato


[Pre-Chorus]: 02:21 (play x2)
G|----------------|----------------|----------------|----------------|
D|--5----5----5~--|----------------|----3------3~---|----------------|
A|----------------|--3----3----3~--|--3-----------3/|--5----x----5~--|
E|----------------|----------------|3---------------|----------------|     
                Gm
Si conmigo te quedas
                C
O con otro tu te vas
                   F
No me importa un carajo
                   Dm
Porque sé que volverás 


G|-------7--------|----------------|---------5------|----------------|
D|--5---------5~--|-------5--------|----3--------3~-|----------------|
A|----------------|--3---------3~--|--3-------------|-3-/-5~~--------|
E|----------------|----------------|3---------------|----------------|     
                Gm
Si conmigo te quedas
                C
O con otro tu te vas
                   F
No me importa un carajo
                   Dm
Porque sé que volverás 


[Chorus]: 02:42
G|----------------|----------------|----------------|----------------|
D|--5----5----5~--|-----5-5----5---|----------------|-----7-7----7---|
A|----------------|-3-3-----3~---3-|-----3-3----3---|-5-5-----5~---5-|
E|----------------|----------------|-1-1-----1~---1-|----------------|     
Gm
Y si con otro pasas el rato
             C
Vamos a ser feliz, vamos a ser feliz
            F
Felices los 4
                 Dm
Te agrandamos el cuarto


02:51
G|-----7-7----7---|----------------|----------------|----------------|
D|-5-5-----5~---5-|-----5-5----5---|----------------|----------------|
A|----------------|-3-3-----3~---3-|-----3-3----3---|-5~~------------|
E|----------------|----------------|-1-1-----1~---1-|----------------|     
                       Gm
Y si con otro pasas el rato
              C
Vamos a ser feliz, vamos a ser feliz
            F
Felices los 4
                 Dm
Yo te acepto el trato


03:02
G|-----7-7----7---|----------------|----------------|----------------|
D|-5-5-----5~---5-|-----5.---------|----------------|----------------|
A|----------------|-3-3------------|-----3-3----3---|-5~~------------|
E|----------------|----------------|-1-1-----1~---1-|----------------|     
                  Gm
Y lo hacemos otro rato
                   C
Y lo hacemos otro rato
                   F
Y lo hacemos otro rato
                   Dm
Y lo hacemos otro rato



[Bridge]:03:13 
G|----------------|----------------|----------------|----------------|
D|--5----5----5~--|----------------|----3------3~---|----------------|
A|----------------|--3----3----3~--|--3-----------3/|--5----x----5~--|
E|----------------|----------------|3---------------|----------------|     

      Gm                       C
Y siempre que se va, regresa a mi
      F                             Dm
No importa el que dirán, nos gusta así


G|-----7-7----7---|----------------|-----5-5----5---|----------------|
D|-5-5-----5~---5-|-----5-5----5---|-3-3-----3~---3-|-----7-7----7---|
A|----------------|-3-3-----3~---3-|----------------|-5-5-----5~---5-|
E|----------------|----------------|----------------|----------------|     
      Gm                       C
Y siempre que se va, regresa a mi
      F                     Dm
No importa el que dirán, somos tal para cual


OUTRO(instrumental): 03:38
G|----------------|----------------|----------------|----------------|
D|--5----5----5~--|----------------|----3------3~---|----------------|
A|----------------|--3----3----3~--|--3-----------3/|--5----x----5~~-|
E|----------------|----------------|3---------------|----------------|     


End: 03:50
Важно! Чтобы посмотреть аппликатуру нужного аккорда к песне “Maluma – Felices Los 4“, просто наведите мышку/кликните на сам аккорд.

Видео/Клип на песню “Maluma – Felices Los 4”:

Нажмите на звезду, чтобы оценить!

Средняя оценка 0 / 5. Количество оценок: 0

Оценок пока нет. Поставьте оценку первым.

Подписаться
Уведомление о
guest
0 Комментарий
inline-комментарии
Посмотреть все комментарии
ПОПУЛЯРНЫЕ АККОРДЫ:
Adblock
detector