Крематорий – Маленькая девочка: аккорды для гитары

0

Текст песни "Крематорий – Маленькая девочка" с аккордами для гитары

ПОКАЗАТЬ/СКРЫТЬ АККОРДЫ
e|-------------------------------------------------------------|
b|-----0--------0--1-3-1--0--------1--0-1-0--------1--0-1-0----|
g|---2-------2------------------2---------------2------------2-|
d|-2------2------------------3---------------3-----------------|
a|-------------------------------------------------------------|
E|-------------------------------------------------------------|

G|-----------------7-------------------5----------------|
D|-7------7------------------7---------------7--------7-|
A|------------------------------------------------------|
E|------------------------------------------------------|

e|-------------------------------------------------------------|
b|------0-------0--1-3-1--0--------1--0-1-0--------1--0-1-0----|
g|----2------2------------------2---------------2------------2-|
d|-2------2------------------3---------------3-----------------|
a|-------------------------------------------------------------|
E|-------------------------------------------------------------|

G|-----------------7------------------5---------------4------2-|
D|-7------7------------------7---------------7-----------------|
A|-------------------------------------------------------------|
E|-------------------------------------------------------------|

e|------------0-----0--1--0-----0-------------|
b|------0-1-3----3-----------3-----3--1--3--1-|
g|-2--2---------------------------------------|
d|--------------------------------------------|
a|--------------------------------------------|
E|--------------------------------------------|

G|------------5--------7--------5--------4-|
D|-7---------------------------------------|
A|-----------------------------------------|
E|-----------------------------------------|

e|---------------|
b|-0--1--0-------|
g|----------0--2-|
d|---------------|
a|---------------|
E|---------------|

G|---------------------------9--------|
D|-5--------7--------9-10-12----10--9-|
A|---------------12-------------------|
E|------------------------------------|

e|------------0-----0--1--0-----0------------------------------|
b|------0-1-3----3-----------3-----3--1--3--1--0--1--0---------|
g|-2--2-------------------------------------------------0--2---|
d|-------------------------------------------------------------|
a|-------------------------------------------------------------|
E|-------------------------------------------------------------|

G|------------5--------7--------5--------4---------------------|
D|-7----------------------------------------------5--------7---|
A|-------------------------------------------------------------|
E|-------------------------------------------------------------|
                       Fm        Fm
                      Маленькая девочка  со взглядом  волчицы
G|--2------------2------------------------------------2--------|
D|--------2-------------2-----0--------0--3--------3-----------|
A|----------------------------------0-----------3--------------|
E|-------------------------------------------------------------|

        Я тоже когда-то был       самоубийцей
G|--2------------2------------------------------------2--------|
D|--------2-------------2-----0--------0--3--------3-----------|
A|----------------------------------0-----------3--------------|
E|-------------------------------------------------------------|

                      Я тоже лежал в окровавленной   ванне
G|--2------------2------------------------------------2--------|
D|--------2-------------2-----0--------0--3--------3-----------|
A|----------------------------------0-----------3--------------|
E|-------------------------------------------------------------|
                      Fm Fm
                      И молча вкушал дым марихуаны
G|--2-------------------------2-----------0--------0--2-------|
D|--------2------3------2--3--------2-----------2------------|
A|-----------------------------------------------------------|
E|------------------------------------------------------------|

 Fm          Fm
Маленькая девочка со взглядом волчицы...
           Fm
Я тоже когда-то был самоубийцей
           Fm    C
Я тоже лежал в окровавленной ванне
        Fm  Fm
И молча вкушал дым марихуаны

Ты видишь, как мирно пасутся коровы
И как лучезарны хрустальные горы
Мы вырвем столбы, мы отменим границы
О, маленькая девочка со взглядом волчицы

Спи сладким сном, не помни о прошлом
Дом, где жила ты, пуст и заброшен
И мхом обрастут плиты гробницы 
Маленькая девочка со взглядом волчицы
Важно! Чтобы посмотреть аппликатуру нужного аккорда к песне “Крематорий – Маленькая девочка“, просто наведите мышку/кликните на сам аккорд.

Видео/Клип на песню “Крематорий – Маленькая девочка”:

Нажмите на звезду, чтобы оценить!

Средняя оценка / 5. Количество оценок:

Оценок пока нет. Поставьте оценку первым.

Подписаться
Уведомление о
guest
0 Комментарий
inline-комментарии
Посмотреть все комментарии