Крематорий – Катманду: аккорды для гитары

0

Текст песни "Крематорий – Катманду" с аккордами для гитары

ПОКАЗАТЬ/СКРЫТЬ АККОРДЫ
Вступление:

E|7----7-------10-10-|7-----------7-------|--------------------|
B|-------10-10-------|--------7-8-----7-8-|-8-8--8--8--7---7-5-|
G|-------------------|-----9--------9-----|--------------7-----|
D|-------------------|--------------------|--------------------|
A|-------------------|--------------------|--------------------|
E|-------------------|--------------------|--------------------|

E|--------------7-------|
B|----------7-8-----7-8-|
G|-------9--------9-----|
D|----------------------|
A|----------------------|
E|----------------------|

E|-7---------------|------10-10-7-----|--------------------|---|
B|---10-8-10-10--7-|10-10-------------|-8-8--8--8--7---8-5-|---|
G|-----------------|------------------|--------------7-----|---|
D|-----------------|------------------|--------------------|---|
A|-----------------|------------------|--------------------|---|
E|-----------------|------------------|--------------------|---|

E|--------------------|
B|----------------8---|
G|-9-9-9--9--9--7---9-|
D|--------------------|
A|--------------------|
E|--------------------|

Bass:
G|-------------|-----------|-----------|-----------|0-0--------|
D|-2---0-0---0-|2---2-2---0|2---0-0---0|2---2-2---0|----0-4-0-0|
A|---2-----0---|--2-----2--|--2-----0--|--2-----2--|-----------|
E|-------------|-----------|-----------|-----------|-----------|

G|---|-----------|---------------|----------------|------------|
D|--0|--0-2-2---0|2-2---0---0---0|2-2---0-2-2---0-|-2-2---0-2-2|
A|0--|2-------2--|----2---2---2--|----2-------2---|-----2------|
E|---|-----------|---------------|----------------|------------|

G|-----|-------------|-------------|-------------|-------------|
D|---0-|-2---0-0---0-|-2---2-2---0-|-2---0-0---0-|-2---2-2---0-|
A|-2---|---2-----0---|---2-----2---|---2-----0---|---2-----2---|
E|-----|-------------|-------------|-------------|-------------|

Fm      Fm
  Мы любили танцевать
Fm            Fm
  Босиком на битом стекле,
Fm
  Умели плавать в соляной кислоте
F             F
  И ходить по тонкому льду
Fm
     В своем родном Катманду.

  Чистили спиртом пищевод,
  Ходили с пъяну на войну.
  Но не дождавшись победного конца
  Возвращались по утру

     В свое родное Катманду.

Пр.
    B              B        B
      И Солнце в синих небесах
    F       B          B
      Без одежды и стыда
   Fm       C        F
      Исполняет на "ура!"
   Fm  F        B
      Танец живота.

Solo

Мы не гуляли по Вселенной
С песней вдоль и поперек,
Но можем смело сказать наперед -
Нет места лучше и в Раю

     Чем родное Катманду.

А кто с нами не согласен -
Пусть зарубит на носу:
Для нас Любовь - и Библия и пища,
Но можем дать и по лицу

     За родную Катманду.

Пр.
Важно! Чтобы посмотреть аппликатуру нужного аккорда к песне “Крематорий – Катманду“, просто наведите мышку/кликните на сам аккорд.

Видео/Клип на песню “Крематорий – Катманду”:

Нажмите на звезду, чтобы оценить!

Средняя оценка / 5. Количество оценок:

Оценок пока нет. Поставьте оценку первым.

Подписаться
Уведомление о
guest
0 Комментарий
inline-комментарии
Посмотреть все комментарии