Земфира – 140: аккорды для гитары

Текст песни "Земфира – 140" с аккордами для гитары

G#
C|--5---3---5---3---8---6--|
G|--6---3---5---5---8---6--|
B|--7---3---6---5---9---7--|
B|--7---5---7---5---10--8--|
C|--5---5---7---3---10--8--|
C|--5---3---5---3---8---6--|

Проигрыш: Bm Bm C (x4)

  Bm                  Bm      C
C|---------------4-5---8-6-----------|
G|---------5-6-8-----------5-8-6--5--|
B|-----6-7---------------------------|
B|---7-------------------------------|

  Bm                   Bm      C
C|----------------4-5----------------|
G|----------5-6-8-------8-6---5------|
B|------6-7-----------------7---6----|
B|----7------------------------------|

   Bm          Bm     Bm
Странно - трамваи не ходят кругами,
   Cm
А только от края до края.
  Bm            Bm   C
Еще молодая весна пытает.
 Bm      Bm        Bm
Мимо созвездий запруженных улиц.
     Bm      C        G    am
Нам первые крылья вернулись,
  Bm                   Bm   C
Еще не проснулись, а все туда же.

   C
   А в забытом тобою отрезке,
         Bm
   Мне все было ново и все интересно.
   Bm              Bm
   И на забытой тобою фотке минус сто сорок
      C
   И вечное лето.

   А в забытом тобою отрезке,
   Мне все было ново и все интересно.
   И на забытой тобою фотке минус сто сорок,
   Ужас.

Помнишь? Да нет, ни фига ты не помнишь.
А мне же не очень-то нужно.
И только сопливо и голос простужен.
Где-то ведь ходят по кругу трамваи,
И мчатся созревшие стаи,
И крутят мои винилы подростки.

   А в забытом тобою отрезке,
   Мне все было ново и все интересно.
   И на забытой тобою фотке минус сто сорок
   И вечное лето.

   А в забытом тобою отрезке,
   Мне все было ново и все интересно.
   И на забытой тобою фотке минус сто сорок,
   Ужас.
Важно! Чтобы посмотреть аппликатуру нужного аккорда к песне “Земфира – 140“, просто наведите мышку/кликните на сам аккорд.

Видео/Клип на песню “Земфира – 140”:

Нажмите на звезду, чтобы оценить!

Средняя оценка 0 / 5. Количество оценок: 0

Оценок пока нет. Поставьте оценку первым.

Подписаться
Уведомление о
guest
0 Комментарий
inline-комментарии
Посмотреть все комментарии
ПОПУЛЯРНЫЕ АККОРДЫ: